Oops, an error
Loading. Please wait.

Cada Noche Tab

version 1
version 1

Whole song

by Marea
78 views 1 this week
no commentswrite comment
1 2 3 4 5
3 more votes to show rating
add to favorites
launch autoscroll
font size
0
reset
how to read this tab
guitar tuner
×
Best way to learn
"Cada Noche"
Autoscroll
slow
fast
+/-
esc
set tempo
stop
Esta es una versión de los barricada que aparece en su tributo
(un camino de piedras),
espero que os guste:

INTRO
|------------------------0---------------------------0--|
|------------------------0---------------------------0--|
|-----0--------0---------0---------------------------0--|
|---2--------4-----------2--------0---------0--------2--|
|-3-------/5------5------2------2---------4----------2--|
|---------------------0--0----3--------/5------5--0--0--|

|---------------------------|
|---------------------------|
|-9-7-9--9-7--7-9-----------|
|-9-7-9--9-7--7-9---5*--7*--|
|-7-5-7--7-5--5-7---5*--7*--|
|-------------------3*--5*--|
                   \__PM__/

actuar como un payaso loco...
|-------------------------------------|
|-------------------------------------|
|-------------------------------------|
|-2~---------------BAJO---------------|
|-2~----------------------------------|
|-0~----------------------------------|


         A5         E5
...para yegar al acto final

Y buscando cada noche...
|-----------------------------|
|-----------------------------|
|-----------9-7-9--9-7--7-9---|
|--5~---7~--9-7-9--9-7--7-9---| x4
|--5~---7~--7-5-7--7-5--5-7---|
|--3~---5~--------------------|

|---------------------------|
|---------------------------|
|-9-7-9--9-7--7-9-----------|
|-9-7-9--9-7--7-9---5*--7*--|
|-7-5-7--7-5--5-7---5*--7*--|
|-------------------3*--5*--|
                   \__PM__/

malabarista y actor...
|-------------------------------------|
|-------------------------------------|
|-------------------------------------|
|-2~---------------BAJO---------------|
|-2~----------------------------------|
|-0~----------------------------------|

                  A5           E5
...que no puedes recordar, trapecio fatal

Y buscando cada noche...
|-----------------------------|
|-----------------------------|
|-----------9-7-9--9-7--7-9---|
|--5~---7~--9-7-9--9-7--7-9---| x4
|--5~---7~--7-5-7--7-5--5-7---|
|--3~---5~--------------------|

PUNTEO
|-----------------------------------------7*--|
|------7-8-10-------7-8-10----7-10p8h10-------|
|--7-9----------7-9---------------------------|
|---------------------------------------------| x2
|---------------------------------------------|
|---------------------------------------------|

ahora se volvería a hacer el arpejeo de la INTRO, y despues el
estribillo asta que se apague la canción.

* = tokar mogollón de veces
~ = dejar sonar
p = pull on
h = hammer on
PM = Palm mutted

esto es todo, para sugerencias o criticas koyi_gothic@
                      ?KoYi?
Suggest correction
Give kudos to tab author, rate the tab!
1 2 3 4 5
comments
print report bad tab
guest
You may want to rate the tab now too:
select rating
Wanna post a correction for this tab? Suggest correction