Oops, an error
Loading. Please wait.

Cada Noche Tab

version 2
version 2

Whole song

32 views 1 this week
no commentswrite comment
1 2 3 4 5
3 more votes to show rating
add to favorites
launch autoscroll
font size
0
reset
how to read this tab
guitar tuner
Autoscroll
slow
fast
+/-
esc
set tempo
stop
Help us to improve Ultimate-Guitar.com Take our survey!
×
-*-* INTRO 1*-*-
(Guitarra acustica)
e|-------------------------|
B|-------------------------|
G|-----0--------0----------|
D|---2--------4------------|
A|-3-------/5------5/7-7---|
E|-------------------------|x4

Como base de esta frase "...y buscando cada noche"
toca el intro de guitarra acustica


...y buscando cada noche

...y buscando cada noche

...y buscando cada noche


-*-* INTRO 2*-*-

E|--X0(varias veces)--|


   E-D-E    E-D--D-E
e|-----------------------|
B|-----------------------|
G|-9-7-9----9-7--7-9-----|
D|-9-7-9----9-7--7-9-----|
A|-7-5-7----7-5--5-7-----|
E|-----------------------|

Punteo mientras la guitarra ritmica toca (E-D)
e|---------------------------------------------------
B|---------------------------------------------------
G|----12-12-12-12-11-11-11-11-14-14-14-12-12-11-11---
D|---------------------------------------------------
A|---------------------------------------------------
E|---------------------------------------------------

-----------------------------------------
-----------------------------------------
----12-12-12-11-11-11-11/9-9-9/7-7-7-7/--
-----------------------------------------
-----------------------------------------
-----------------------------------------     x2

--------------------------------------------
--------------------------------------------
----12-12-12-12-11-11-11-11-14-14-14-12-12--
--------------------------------------------
--------------------------------------------
--------------------------------------------

-----------------------------------------------|
-----------------------------------------------|
----11-11-12-12-12-11-11-11-11/9-9-9/7-7-7/9---|
-----------------------------------------------|
-----------------------------------------------|
-----------------------------------------------| Finaliza
       (Bajo)
Actuar como un payaso loco
por el vertido agotador
que hay tras el telon

noche magica de aplausos trucos de comediante

    A|--X0(varias veces)--|
para llegar al acto final


G5    D5               E5-D5-E5    E5-D5--D5-E5/
Y buscando cada noche
G5    D5               E5-D5-E5    E5-D5--D5-E5/
otro cuerpo de mujer
C5    D5                       E5-D5-E5    E5-D5--D5-E5/
y el silencio en tantos brazos
G5    D5
decir adios en un papel

INTRO 2

(Bajo)
Malavarista y actor
golpe a golpe en pleno corazon
cayendo en picao

casi siempre hay un traspies sombras que no

       A|--X0(varias veces)--|
puedes recordar trapecio fatal

G5    D5               E5-D5-E5    E5-D5--D5-E5/
Y buscando cada noche
G5    D5               E5-D5-E5    E5-D5--D5-E5/
otro cuerpo de mujer
C5    D5                       E5-D5-E5    E5-D5--D5-E5/
y el silencio en tantos brazos
G5    D5
decir adios en un papel


-*-*SOLO (pequeño punteo)*-*-

e|----------------|
B|----------------|
G|--7-9-11-12-14--|
D|----------------|
A|----------------|
E|----------------| x2


e|----------------------------------|
B|---------10----12-12-12-12-12-----|
G|--7-10-12---12--------------------|
D|----------------------------------|
A|----------------------------------|
E|----------------------------------|


e|----------------|
B|----------------|
G|--7-9-11-12-14--|
D|----------------|
A|----------------|
E|----------------|


e|----------------------|
B|----------------------|
G|--7-9-11-12/^^^^14-12-|
D|----------------------|
A|----------------------|
E|----------------------|


...y buscando cada noche

...y buscando cada noche

...y buscando cada noche


G5    D5               E5-D5-E5    E5-D5--D5-E5/
Y buscando cada noche
G5    D5               E5-D5-E5    E5-D5--D5-E5/
otro cuerpo de mujer
C5    D5                       E5-D5-E5    E5-D5--D5-E5/
y el silencio en tantos brazos
G5    D5   (recalca en D5)
decir adios

(redoble de bateria)

G5    D5               E5-D5-E5    E5-D5--D5-E5/
Y buscando cada noche
G5    D5               E5-D5-E5    E5-D5--D5-E5/
otro cuerpo de mujer
C5    D5                       E5-D5-E5    E5-D5--D5-E5/
y el silencio en tantos brazos
G5    D5               E5-D5-E5    E5-D5--D5-E5/
decir adios en un papel


E5-D5-E5    E5-D5--D5-E5/

...y buscando cada noche

...y buscando cada noche

...y buscando cada noche...


Saludos!!! Cualquier Duda o comentario ahi esta mi correo...
VIVA EL ROCK!!!
Saludos desde Tijuana BC MEXICO!!
Esta cancion la escuche gracias a mi bonita, es una gran
cancion de Barricada interpretada ahora por este gran grupo
Marea, espero les guste la trascripcion...
les saLuda riCardO!!
Suggest correction
Give kudos to tab author, rate the tab!
1 2 3 4 5
comments
print report bad tab
guest
You may want to rate the tab now too:
select rating
Wanna post a correction for this tab? Suggest correction