Oops, an error
Loading. Please wait.

Canaleros Tab

version 1
version 1

Whole song

116 views 3 this week
no commentswrite comment
1 2 3 4 5
3 more votes to show rating
add to favorites
launch autoscroll
font size
0
reset
how to read this tab
guitar tuner
×
Best way to learn
"Canaleros"
Autoscroll
slow
fast
+/-
esc
set tempo
stop
Muy buenas a todos. Me estreno con este tema de Marea que,
sinceramente, no sé cómo no lo ha subido nadie.
No es complicado y creo que suena bien.

Vamos al lío. Primero, el dibujillo introductorio.
Pongo sólo las 4 últimas cuerdas
porque las otras dos no las vamos a utilizar:

G:-------------------------------------
D:--------------7----------------------
A:-----7-9-10-7---10----7-9-10-7-5-5-7-
E:-------------------------------------

MI 5 (empezando en el traste 7)

G:---x-x---xxx-x--x-x-xx--xx--------------------------
D:---9-9---999-9--9-9-97--79--------------------------            x2
A:---7-7---777-7--7-7-75--57--------------------------
E:----------------------------------------------------

(Y ahora empezamos ya con los acordes propiamente dichos.
Coged el ritmo que no es complicado. Lo hace 4 veces)

[ch]D5-[ch]A5-[ch]B5 [ch]G5 SOL5[/ch] SOL5[/ch] SOL5[/ch]-SI5[/ch]

[ch]D5-[ch]A5[/ch]-[ch]G5[/ch]-[ch]E5[/ch] (este MI5[/ch] se hace como el mi menor de toda la vida)

[ch]D5-[ch]A5-[ch]B5 [ch]G5 SOL5[/ch] SOL5[/ch] SOL5[/ch]-SI5[/ch]

[ch]D5-[ch]A5[/ch]-[ch]G5[/ch]-MI5[/ch]


[ch]E5[/ch]
Déjame que descuelgue las campanas

[ch]G5[/ch]
De tanto redoblar

[ch]A5[/ch]
Se me han quitao las ganas

[ch]E5[/ch]
De alante y atrás, de amargo tañir

[ch]G5                LA5[/ch]
Mi sangre, me sudan los pies

(ya sigue así durante toda la estrofa, os dejo la letra)

Qué mierda de Don Juan que se harta de reír
cuando se tropieza
frente a la platea
Y se esfuma feliz perdido en la zorrera
mientras se despluman
polos de pelea

(aquí hace un interlude con cuatro acordes)

[ch]B5-[ch]C5[/ch]-[ch]G5[/ch]-SOL5[/ch]

[ch]B5-[ch]C5-[ch]G5[/ch]-SOL5[/ch]-MI5[/ch]

(Y vuelve a lo de antes)

Los viernes me embarazan en la cama
Y a la hora de parir
Se me volverán ranas
Y yo segador, queriendo arrancar
vigilias, ya sabes por qué
Que para pisar cristos me basto y me escondo
guardo entre las muelas
rosarios a miles
Que anego con ron, como si no doliera
y sigo vadeando
mis Guadalquivires

ESTRIBILLO

      [ch]C5         [ch]D5[/ch]               MI5*[/ch] (TRASTE 7)
No se cegarán los claros nunca más
      [ch]C5         [ch]D5[/ch]          MI5[/ch]
Brillarán las alcayatas, canaleros cantarán
      [ch]C5         [ch]D5[/ch]          MI5[/ch]
Desperdiciando lingotes voy al trote y sé que
            [ch]C5       [ch]D5           DO5-[ch]B5[/ch]-DO5[/ch]-SI5[/ch]
no voy a llegar. Perdiguero, ¿a dónde vas?


(La base del solo es la misma que las estrofas)

[ch]E5-[ch]G5[/ch]-LA5[/ch] x4

[ch]C5-[ch]D5[/ch]-MI5[/ch]  x2

(El final del solo es este, y después vamos al puente)


B:--------15^17-15^17 15----------------------------------
G:-----12-----------------12^13-13-12-10-8-8-10-12-12-----
D:--14----------------------------------------------------
A:--------------------------------------------------------


B:--------15^17-15^17 15----------------------------------
G:-----12-----------------13-12--7-8----------10-8-7------
D:--14-----------------------------------------------9----
A:--------------------------------------------------------


MI5---SOL5---LA5---SOL5---MI5 (aquí se hace sonar el acorde)

[ch]E5                                       SOL5[/ch]
Y mañana no será lo que Dios quiera, que será el mismo galán
                             [ch]A5[/ch]                  [ch]G5[/ch]                   [ch]E5[/ch]
Aburrido y con ceguera, desencanto. Seguro que truena y que no es para tanto

(Vuelve a la secuencia de las primeras estrofas)


[ch]E5[/ch]
La vida se desbordará del cub

[ch]G5[/ch]
Se me encabritará

[ch]A5[/ch]
Metida en el embudo

[ch]E5[/ch]
Pa qué quieres más, dejémoslo así

[ch]G5[/ch]
Tú ladra

       [ch]A5[/ch]
que yo roncaré

(Y estribillo)

      [ch]C5         [ch]D5[/ch]               MI5*[/ch] (TRASTE 7)
No se cegarán los claros nunca más
      [ch]C5         [ch]D5[/ch]          MI5[/ch]
Brillarán las alcayatas, canaleros cantarán
      [ch]C5         [ch]D5[/ch]          MI5[/ch]
Desperdiciando lingotes voy al trote y sé que
            [ch]C5       [ch]D5           DO5-[ch]B5[/ch]-DO5[/ch]-SI5[/ch]
no voy a llegar. Perdiguero, ¿a dónde vas?


(Ya se acaba la letra, y hace el dibujo del final del solo)


B:--------15^17-15^17 15----------------------------------
G:-----12-----------------12^13-13-12-10-8-8-10-12-12-----
D:--14----------------------------------------------------
A:--------------------------------------------------------

E:-------------------------15-15-15-14-12---10^12^10----10----
B:--------15^17-15^17 15-----------------------------12-------
G:-----12-----------------------------------------------------
D:--14--------------------------------------------------------
A:------------------------------------------------------------

B:--------15^17-15^17 15----------------------------------
G:-----12-----------------12^13-13-12-10-8-8-10-12-12-----
D:--14----------------------------------------------------
A:--------------------------------------------------------

E:--15-15-15-14-10-12----15-15-15-14-10-12----15-15-15-14-10-12-17-------
B:------------------------------------------------------------------17---
G:-----------------------------------------------------------------------
D:-----------------------------------------------------------------------


(Y ya termina con el mismo dibujo del principio)

G:-------------------------------------
D:--------------7----------------------
A:-----7-9-10-7---10----7-9-10-7-5-5-7-
E:-------------------------------------


Pues esto ha sido todo. Creo que no falta gran cosa y
ha quedado bastante completa, al menos lo que es la base.
El solo no he sido capaz de sacarlo, lo siento.
Cualquier cosa, tanto para bien como para mal,
en golpesdepedal@ me lo comentáis.
Espero que os guste y, por supuesto, si véis algún fallo, para eso estamos.
Para mejorar todos. ¡Un abrazo, viva el rock y... ¡que nunca baje la Marea!
Suggest correction
Give kudos to tab author, rate the tab!
1 2 3 4 5
comments
print report bad tab
guest
You may want to rate the tab now too:
select rating
Wanna post a correction for this tab? Suggest correction