Oops, an error
Loading. Please wait.

Canaleros Tab

version 2
version 2

Whole song

by Marea
66 views 1 this week
no commentswrite comment
1 2 3 4 5
3 more votes to show rating
add to favorites
launch autoscroll
font size
0
reset
how to read this tab
guitar tuner
Autoscroll
slow
fast
+/-
esc
set tempo
stop
este es el solo del tema canaleros que nadie saco, ak se los dejo
un saludo disfruten tocarlo asi como yo disfrute sacarlo para ustedes...
1|----------------------------------------------------------------------
2|---------------------12-10--10----12v-10vvv-99-77-5555----------------
3|----------------12-9------11---11----------------------77/999------
4|------------7/9---------------------------------------------------------
5|7-10-7-10-7------------------------------------------------------------
6|------------------------------------------------------------------------

1|------------------------------------------------------
2|-----------------------888/1010/12(x5)-1414-15-17vvv-17-15-------------
3|--7/9-----------------------------------------------------16-14-16---
4|-9---9-7-9-7/9----------------------------------------------------14-
5|---------------1010--7--------------------------------------------------
6|----------------------------------------------------------------------

1|------------------------------------------------------------------------
2|------------------------todo ligado no levantar el dedo de la cuerda
3|--99h7-7/5-5-----------------------------------------------------------
4|----------------99h7-7/5-5/3-3/2-2/3-------------------------------------
5|-------------------------------------3-3/5-5/7-7/9-9/10-10/9-9/5-------
6|-----------------------------------------------------------------


1|------------------------------------------------------
2|-------15/17-17-15vvv----------------------------------------
3|-----12--------------16/17-16-14/12-12p14-16v-14-------------------
4|12/14-------------------------------------------------------------
5|-------------------------------------------------------------------
6|-------------------------------------------------------------------


1|--------------------------------------------------12-15-14-12-10-8-5----
2|---------15/17-17-15vvv-------------------------12-------------------8-5
3|-------12--------------16h17-16-12h14-14vv/12-9v------------------------
4|-12/14--------------------------------------------------------------------
5|------------------------------------la parte del fina es sin usar la pua
6|-------------------------recomendble usar dedos para que suene mas calido
Bueno disfruten si ahí algo que no cuadra avisen
yo se los explico ak lo hice rapido pero el solo suena igual
solo ahí que ponerle bien los acentos a las notas y a las estiradas justas
?para mi R_TA de leo cualquier cosa un mail o un mp al FACE
 saludos desde argentina?..
Suggest correction
Give kudos to tab author, rate the tab!
1 2 3 4 5
comments
print report bad tab
guest
You may want to rate the tab now too:
select rating
Wanna post a correction for this tab? Suggest correction