Oops, an error
Loading. Please wait.

Como El Viento De Poniente Tab

version 1
version 1

Solo

Whole song

1,871 views 3 this week
no commentswrite comment
1 2 3 4 5
3 more votes to show rating
add to favorites
launch autoscroll
font size
0
reset
how to read this tab
guitar tuner
Autoscroll
slow
fast
+/-
esc
set tempo
stop
Help us to improve Ultimate-Guitar.com Take our survey!
×
Marea - Como el viento de poniente

By: samoth

Solo de introduccion

|------10-7-|
|-10^-------|
|-----------|
|-----------|
|-----------|
|-----------|

|--------------------------|
|-7------------------------|
|----9-7---7-----------7---|
|--------9---9-7---7-9---9-|
|----------------9---------|
|--------------------------|

|--------------------------|
|------------------7-------|
|------7---7-9-7-9---9-7-9-|
|-7--9---9-----------------|
|--------------------------|
|--------------------------|

|-13--12-10----10----------------------|
|-----------12----12-10----10-12-10-12-|
|-----------------------11-------------|
|--------------------------------------|
|--------------------------------------|
|--------------------------------------|

|-------------------------------------|
|-10/12--12-10----10------------------|
|--------------10----11-9----9--------|
|-------------------------12---9-12-9-|
|-------------------------------------|
|-------------------------------------|

|-------------------------------------|
|-10/12--12-10----10------------------|
|--------------10----11-9-----------9-|
|-------------------------9-12-9-12---|
|-------------------------------------|
|-------------------------------------|

|-------------------------------------|
|-10/12--12-10----10------------------|
|--------------10----11-9----9--------|
|-------------------------12---9-12-9-|
|-------------------------------------|
|-------------------------------------|
Suggest correction
Give kudos to tab author, rate the tab!
1 2 3 4 5
comments
print report bad tab
guest
You may want to rate the tab now too:
select rating
Wanna post a correction for this tab? Suggest correction