Oops, an error
Loading. Please wait.

Como Los Trileros Tab

version 1
version 1

Whole song

by Marea
116 views 1 this week
no commentswrite comment
1 2 3 4 5
3 more votes to show rating
add to favorites
×
Save as Personal and add changes to this tab that will be seen only by you. Learn more ›
×
You can save this tab as Personal to edit and correct it or add notes. All changes will be seen only by you. Learn more »
save as personal
new!
launch autoscroll
font size
0
reset
how to read this tab
guitar tuner
Autoscroll
slow
fast
+/-
esc
set tempo
stop
Ésta es mi interpretación de los punteos que faltan de éste, uno de
los mejores temas, de Marea.

Aclaraciones:

-/     arrastrar
-B     estirar
-bbbb  estirar y mantener estirado un rato
-en el acompañamiento, las notas entre paréntesis se tocan como golpes, y
duran muy poco.
-estos punteos están sobre la tonalidad que propuso KoYi, que mando los
acordes de esta canción, y creo que son los correctos. Si les gusta más la
canción tocada en otro tono, solo transladen los punteos y listo.
-faltaria el solo de la parte donde canta el hermano del Kutxi, pero eso
ya lo subió alguien y no tengo quejas XD, me parece correcta también.
-la división en compases de la primera parte no es del todo correcta, esta
echa a ojo en vez de a oído, pero para que se ubiquen mas o menos.


+++El punteito del solo, a los 0'17''.

 [ch]Bm     ([ch]G [ch]Am[/ch])   SIm[/ch]           ([ch]D[/ch]      LAm[/ch])
|----------------|-------------------------------------|
|---------9bbbbb-|-------------------------------------|
|-----7-9-9bbbbb-|-7-9b-9-7---7-9-7--------------------|
|-7/9------------|----------9-------9-7---7-9-7--------|
|----------------|----------------------9-------9-7-9--|
|----------------|-------------------------------------|


    [ch]Bm    ([ch]G [ch]Am[/ch])       SIm[/ch]         ([ch]D[/ch] LAm[/ch])
|-----------------------|-------------------------|
|-----------------------|----------------10bbbbbb-|
|-----------------------|-7-9b-7---7-9-7-10bbbbbb-|
|------7---7-9b-7---7-9-|--------9----------------|
|--7-9---9--------9-----|-------------------------|
|-----------------------|-------------------------|
                         este último compás está 'medio' inventado


+++El punteo que acompaña al estribillo, en la primera parte, donde canta
el Kutxi, a los 0'48'' y 1'39''.

  [ch]G          [ch]Am          SIm[/ch]          LAm[/ch]
|----------3-|----------5-|----------7-|-----------5-|
|--------3---|--------5---|--------7---|---------5---|
|------------|------------|------------|-------------|
|-5----------|-7----------|-9----------|-7-----------|
|-5----------|-7----------|-9----------|-7-----------|
|-3----------|-5----------|-7----------|-5-----------|
si voy cuesta arriba tu me agarras...

  [ch]G          [ch]Am          SIm[/ch]          SIm[/ch]
|----------3-|----------5-|----------7-|-----------7-|
|--------3---|--------5---|--------7---|---------7---|
|------------|------------|------------|-------------|
|-5----------|-7----------|-9----------|-9-----------|
|-5----------|-7----------|-9----------|-9-----------|
|-3----------|-5----------|-7----------|-7-----------|
con saliva en los dedos como los trileros...


  [ch]G          [ch]Am          SIm[/ch]          LAm[/ch]
|----------3-|----------5-|----------7-|-----------5-|
|--------3---|--------5---|--------7---|---------5---|
|------------|------------|------------|-------------|
|-5----------|-7----------|-9----------|-7-----------|
|-5----------|-7----------|-9----------|-7-----------|
|-3----------|-5----------|-7----------|-5-----------|
y me llevas a cojer chatarra...

  [ch]G          [ch]Am[/ch]          SIm[/ch]          [ch]D*[/ch]
|----------3-|----------5-|----------7-|-------------|
|--------3---|--------5---|--------7---|-------------|
|------------|------------|------------|-7777777-----|
|-5----------|-7----------|-9----------|-7777777-----|
|-5----------|-7----------|-9----------|-5555555-----|
|-3----------|-5----------|-7----------|-------------|
con un ojo en la espalda como los trileros...

*la segunda vez que tocan el estribillo, el RE no aparece, y rematan
esa parte en SIm, para despues entrar en la parte acústica


+++Por último, el punteo de la parte flamenca, a los 2'09'',
justo antes de que cante Domingo Calzado.
El acompañamiento son los acordes de arriba, esta vez arpegiados.

 [ch]Em         [ch]C       [ch]D     SOL[/ch]           LAm[/ch]     SIm[/ch]
|-----------|---------------|-------------|----------------|
|-----------|---------------|-------------|----------------|
|-----------|---------------|-----5-5-7-4-|-7-5---5-7-5-7b-|
|-----5-5---|-----5-5-7/9-7-|-5-7---------|-----7----------|
|-5-7-----7-|-5-7-----------|-------------|----------------|
|-----------|---------------|-------------|----------------|


Califiquen el tema

Bueno, eso es todo por ahora. SEGURO que hay errores, asi que cuidado.
Comentarios, correcciones, insultos y todo eso, a mi correo electronico:
elmismodesiempre_77@ o el que aparece arriba.

Busco batero en Madrid, ciudad o zona noroeste (hacia Villalba,Alpedrete,
Collado Mediano,Becerril,etc) para formar banda. Los interesados que
manden mails también. Gracias!!!
Suggest correction
Give kudos to tab author, rate the tab!
1 2 3 4 5
comments
print report bad tab
guest
Wanna post a correction for this tab? Suggest correction