Oops, an error
Loading. Please wait.

Como Los Trileros Tab

version 2
version 2

Whole song

by Marea
41 views 1 this week
no commentswrite comment
1 2 3 4 5
3 more votes to show rating
add to favorites
launch autoscroll
font size
0
reset
how to read this tab
guitar tuner
×
Best way to learn
"Como Los Trileros"
Autoscroll
slow
fast
+/-
esc
set tempo
stop
Hola de nuevo aqi vengo con otro solo de este grupazo
y haver si os animais y mandais tmb mas solos...xD!!!

Solo: 2:39

E|------------------------------------------------------------
B|------------------------------------------------------------
G|------------------------------------------------------------
D|-----5-5---5---5--------5-5---5h7-5h7~-----5-5---5---5------
A|-5h7-----7---7---7~-5h7-----7----------5h7-----7---7---7~~--
E|------------------------------------------------------------

E|------------------7b----------------------------------------
B|-----------5-8b~~----10b--8p7---7h8p7-----------------------
G|-------4-7--------------------9-------9---7-9~--------------
D|----5h7---------------------------------9-------------------
A|-5h7--------------------------------------------------------
E|------------------------------------------------------------


E|------------------------------------------------------------
B|-8p7---7h8--------8p7---------12b~~-------------------------
G|-----9-----7---9------9-7---9-------------------------------
D|-------------9------------9---------------------------------
A|------------------------------------------------------------
E|------------------------------------------------------------

  Saludos para tods¡¡¡
  Si hay errores escrividme a mi correo gracias!!!
Suggest correction
Give kudos to tab author, rate the tab!
1 2 3 4 5
comments
print report bad tab
guest
You may want to rate the tab now too:
select rating
Wanna post a correction for this tab? Suggest correction