Oops, an error
Loading. Please wait.

Como Quiere Tu Abuelita Tab

by Marea
98 views 1 this week
no commentswrite comment
1 2 3 4 5
3 more votes to show rating
add to favorites
×
Save as Personal and add changes to this tab that will be seen only by you. Learn more ›
×
You can save this tab as Personal to edit and correct it or add notes. All changes will be seen only by you. Learn more »
save as personal
new!
launch autoscroll
font size
0
reset
how to read this tab
guitar tuner
Autoscroll
slow
fast
+/-
esc
set tempo
stop
e|-------------------------------------------------------------------------
B|-------------------------------------------------------------------------
G|--------------------8----------------------------------------------------
D|----9---------------9----------------------------------------------------
A|----9-9-9-9-9-9-9-9-9----------------------------------------------------
E|----7-7-7-7-7-7-7-7-7----------------------------------------------------


Ahora esto varias veces:
e|-------------------------------------------------------------------------
B|-------------------------------------------------------------------------
G|----7/9--9-9-------------------------------------------------------------
D|----7/9--9-9-------------------------------------------------------------
A|----5/7--7-7---7-7-7-7-7-7-7-7-------------------------------------------
E|---------------0-0-0-0-0-0-0-0-------------------------------------------


1er cambio:

e|---------------------3---------------------------------------------------
B|---------------------3----------------------------------4----------------
G|----5---2---4--------4----------5---2---4---------------4----------------
D|----5---2---4---5----5----------5---2---4---------------4----------------
A|----3---0---2---5---------------3---0---2-2-2-2-2-2-2-2-2----------------
E|----------------3--------------------------------------------------------


Bridge: (solo bajo, acordes o con punteo según proceda :P)

e|---0------3------5------------------------------------------------------
B|---0------3------5------------------------------------------------------
G|---1------4------6-------5---7------------------------------------------
D|---2------5------7-------5---7------------------------------------------
A|---2------5------7-------3---5------------------------------------------
E|---0..----3..----5..----------------------------------------------------


YA tá.
si me kerez desi algo: Bluenote (irc-hispano)
Suggest correction
Give kudos to tab author, rate the tab!
1 2 3 4 5
comments
print report bad tab
guest
Wanna post a correction for this tab? Suggest correction