Oops, an error
Loading. Please wait.

Con La Camisa Rota Tab

104 views 1 this week
no commentswrite comment
1 2 3 4 5
3 more votes to show rating
add to favorites
launch autoscroll
font size
0
reset
how to read this tab
guitar tuner
Autoscroll
slow
fast
+/-
esc
set tempo
stop
Help us to improve Ultimate-Guitar.com Take our survey!
×
Pimero qiero agradecer a los colaborado@s de esta pagina
el trabajo tan bien exo y gracias por hacerme cada dia un niño
mas feliz!!!!

Solo de guitarra:
con el bajo y la bateria...

E|----------------5b-------------------------------------------|
B|------------------ 6h7p6-------------------------------------|
G|-----5---5/7~~~-----------7p5---5---5/7~~--7p5---5-----------|
D|-5h7---7----------------------7---7------------7---7-3~------|
A|--------------------------------------------------------5~---|
E|-------------------------------------------------------------|

  Entra guitarra distorsión:

E|----------------5b-------------------------------------------|
B|-------------------6----------66-88--------------------------|
G|-----5---5/7(7)------7~--5-77--------5h7p5-------------------|
D|-5h7---7-----------------------------------77h3--------------|
A|------------------------------------------------5------------|
E|-------------------------------------------------------------|

E|------------------------8------------8----8h10b--13b-10------|
B|-----66----------66-10b---10b---8h10---10---------------13b~~|
G|-5h7----7~~--5h7---------------------------------------------|
D|-------------------------------------------------------------|
A|-------------------------------------------------------------|
E|-------------------------------------------------------------|

 Luego viene la parte rapida que no consigo sacar no se si es por que no teng
 una guitarra electrica y el efecto o lo puedo hacer a ver si entre tods
 sacamos lo q qeda un salud!!!MAREA
Suggest correction
Give kudos to tab author, rate the tab!
1 2 3 4 5
comments
print report bad tab
guest
You may want to rate the tab now too:
select rating
Wanna post a correction for this tab? Suggest correction