Oops, an error
Loading. Please wait.

Cuarto Sin Ventanas Tab

version 1
version 1

Whole song

164 views 1 this week
no commentswrite comment
1 2 3 4 5
3 more votes to show rating
add to favorites
launch autoscroll
font size
0
reset
how to read this tab
guitar tuner
×
Best way to learn
"Cuarto Sin Ventanas"
Autoscroll
slow
fast
+/-
esc
set tempo
stop
Em Bm C D
Em Bm C D

ESTROFA: Em Bm C D
Em                  Bm        
Desterrajado dao la vuelta prometido
C                D
Si salgo de esta derribo el olvido
Em                       Bm
Adios enrredadera por mi vida te lo pido
C                   D
Plegemos las velas, hay cien mil caminos

Meto en el saco tus versitos y los mios
Cien mil arrebatos, tu aroma de niño
Luna no te rias, dejame tranquilo prender mi candela

PUNTEO:

|-----------2--3-|----------2-3-5-|-3--2--------|-------------------|
|--------5-------|-3-3-3--5-------|-------3-3-5-|-5-3-5-3-3-0-3-0-0-|
|-4-4-4----------|----------------|-------------|-------------------|
|----------------|----------------|-------------|-------------------|
|----------------|----------------|-------------|-------------------|
|----------------|----------------|-------------|-------------------|

|-----------2--3-|----------2-3-5-|-3--2--------|-------------------|
|--------5-------|-3-3-3--5-------|-------3-3-5-|-5-3-5-3-3-0-3-0-0-|
|-4-4-4----------|----------------|-------------|-------------------|
|----------------|----------------|-------------|-------------------|
|----------------|----------------|-------------|-------------------|
|----------------|----------------|-------------|-------------------|

|-------5-7-8-10-8-7-5---5--------------------|
|-5-7-8----------------8---8-7-5-3-5-3-0-3-5--|
|---------------------------------------------|
|---------------------------------------------|
|---------------------------------------------|
|---------------------------------------------|


ESTROFA:Em Bm C D

Intransigente, desbocado, remordido
Me cruzo de piernas, me muero en un grito
Mi media sonrisa le dice que a sido el rio 
el que te quiere y te ha querido 

A media luz campo a través sobre las olas
No mires mi niño voy a bailar sola
Esta vez no te vienes conmigo
El suelo que ves son mis pies

PUENTE:
Bm              C
Repiquetean mis deditos en tu espalda
D
Lloran los relojes, el tiempo no anda
Bm                         C            
Transpira el colchón de mi alma
               D     
Si me pongo en pie, no se por qué


ESTRIBILLO:(Em Bm C D)         |
Si tu supieras lo que es ver   |  
Al sol morirse de ganas        |  x 2  
De dar de lleno en la pared    |  
De un cuarto sin ventanas      |    

Em D Em

PUNTEO:

ESTROFA:
A cuatro patas cabilando me he escondido
Pa verla bañarse y ponerme encendido
Y tengo celos de la luna y del agua de rio, del rio

Lengua de trapo pa explicarte mi destino
No mires mi niña, mejor te lo escribo
Pero antes araña mis dudas que hace mucho frio, mucho frio

PUENTE:
Bm              C       
Repiquetean mis deditos en tu espalda
D
Lloran los relojes, el tiempo no anda
Bm                         C
Transpira el colchón de mi alma
               D
Si me pongo en pie, no se por qué

ESTRIBILLO: x 2

PUNTEO: Como el anterior, acaba tocando en la escala de Em.


      ESTROFAS           ESTRIBILLO
|---7---7---3---5---|---0---2---0---2---|  |##------------|
|---8---7---5---7---|---0---3---1---3---|  |  ##          |
|---9---7---5---7---|---0---4---0---2---|  |  NUNCA MAIS  |
|---9---9---5---7---|---2---4---2---0---|  |       ##     |
|---7---9---3---5---|---2---2---3---0---|  |          ##  |
|---x---7---x---x---|---0---2---0---x---|  |------------##|
Suggest correction
Give kudos to tab author, rate the tab!
1 2 3 4 5
comments
print report bad tab
guest
You may want to rate the tab now too:
select rating
Wanna post a correction for this tab? Suggest correction