Oops, an error
Loading. Please wait.

Cuarto Sin Ventanas Tab

version 2
version 2

Whole song

96 views 1 this week
no commentswrite comment
1 2 3 4 5
3 more votes to show rating
add to favorites
launch autoscroll
font size
0
reset
how to read this tab
guitar tuner
Autoscroll
slow
fast
+/-
esc
set tempo
stop
Help us to improve Ultimate-Guitar.com Take our survey!
×
Este el primer solo, la parte del final me la e inventao subiendo
por la pentatonica mayor de la pero keda bien.

e|-------------------------------------------------------------
B|-------5----5--5------5----5---------------------------------
G|-------5----5--5------5----5---/7-9-7-9-7h9------------------
D|--/7-7----7------/7-7----7-------------------10h7-10-7-10-7--
A|-------------------------------------------------------------
E|-------------------------------------------------------------


  -------8----8-8-------8------8-------------------------------
  -------8----8-8-------8------8-------------------------------
  --/9-9-----9--------/9-9----9----5h6-5-----------------------
  ----------------------------------------7-5------------5-7---
  --------------------------------------------7-5----5-7-------
  -------------------------------------------------7-----------


Y ahora viene el güeno de verdad.


e|--------------------------------------------------------------
B|-------5----5--5------5----5----------------------------------
G|-------5----5--5------5----5---/7-9-7-9-7h9---------------7---
D|--/7-7----7------/7-7----7-------------------10h7-10-7-10-----
A|--------------------------------------------------------------
E|--------------------------------------------------------------


  --------------------------------------------------------------
  --------------------------------------------------------------
  -------5------------------------------------------------------
  --/7-7----7-5--------------------------------5-6-5------------
  --------------7-5---5-7-5-7--------------5-7-------7-5---5-7--
  ------------------7-----------5-5-5--5-7---------------7------


  ------5-5-7--8-10-12~~~--12-15-12--8-10-8----------------------------------
  --5-7-------------------------------------10--8h10h9-8h10h9-8h10h9-8h10h9--
  ---------------------------------------------------------------------------
  ---------------------------------------------------------------------------
  ---------------------------------------------------------------------------
  ---------------------------------------------------------------------------

  ----------------------------------12-15-12--/17-17--12-13-12----------------
  --10-8-------------------------------------------------------15-12-13-------
  -------10-8-----9-9-9-12-9-12-9---------------------------------------14----
  ------------10-----------------------------------------------------------14-
  ----------------------------------------------------------------------------
  ----------------------------------------------------------------------------

  ---------------------------------------------------------12-15-12-15/17-17--
  ----------------------------------------------------------------------------
  --/7-7--/9-9--/12-12--/14-14--15--16-16--15-15--16-16-17--------------------
  ----------------------------------------------------------------------------
  ----------------------------------------------------------------------------
  ----------------------------------------------------------------------------

  --12p15h14-12p15h14-12p15h14-12p15h14-12p15h14-12p15h14--15/19-17--17/12-12-12-12-----------|
  ----------------------------------------------------------------------------------13----15--|
  -------------------------------------------------------------------------------------14-----|
  --------------------------------------------------------------------------------------------|
  --------------------------------------------------------------------------------------------|
  --------------------------------------------------------------------------------------------|


Pues creo ke ya está, sólo falta la última parte del solo ke no la pongo porke ya esta puesta
y porke estoy asta la polla de poner numeros. Enga, a exarle un par ke tampoco es tan dificil.

Si hay alguien de toledo o alrededores ke kiera formar un grupo o ke
kiera compartir local, ke me mande un emilio. Agur
Suggest correction
Give kudos to tab author, rate the tab!
1 2 3 4 5
comments
print report bad tab
guest
You may want to rate the tab now too:
select rating
Wanna post a correction for this tab? Suggest correction