Oops, an error
Loading. Please wait.

Despellejo Tab

version 1
version 1

Whole song

118 views 3 this week
no commentswrite comment
1 2 3 4 5
3 more votes to show rating
add to favorites
launch autoscroll
font size
0
reset
how to read this tab
guitar tuner
Autoscroll
slow
fast
+/-
esc
set tempo
stop
Help us to improve Ultimate-Guitar.com Take our survey!
×
 Pues nada, aqui os dejo este temita
q mola a jierro, dedicado a mi ex
para q vea q ay buen rollo (H).


     X2
e[----------]
B[----------]
G[----------]
D[-2-2-2-2--]
A[-0-0-0-0--]
E[----------]

  1ªGuit. X2 (riff A)
e[--------------------------/-
B[--------------------------/-
G[--------------------------/-
D[-------------2-2-2--------/-
A[-3-3-3-5-5-5-0-0-0-7-7-7--/-
E[-1-1-1-3-3-3-------5-5-5--/-

  2ªGuit. X2
e[--------------------------/-
B[----6-----8-----5-----10--/-
G[--5--5--7--7--4--4--9-----/-
D[-3-3---5-5---2-2---7-7----/-
A[--------------------------/-
E[--------------------------/-

  1ªGuit.  (riff B)
e[----------------------------------/-
B[----------------------------------/-
G[----------------------------------/-
D[-3---3---3--5---5---5--2---2---2--/-
A[-3---3---3--5---5---5--2---2---2--/-
E[--1-1-1-1-1--3-3-3-3-3--0-0-0-0-0-/-
              (  riff     C    )x2
e[-----------/-----------/---------]
B[-----------/-----------/---------]
G[-----------/-----------/---------]
D[-7---7---7-/-3--5--2-2-/-2-2-2-2-]
A[-7---7---7-/-3--5--2-2-/-0-0-0-0-]
E[--5-5-5-5-5/-1--3--0-0-/---------]

  2ªGuit. Solo.
e[-----------------------------------/-
B[--------------5--------------------/-
G[----5-7-7Bu(8)Bd(7)-5-----5-6------/-
D[-5S7-----------------7-5-7----7-5-7/-
A[-------------------------------7---/-
E[-----------------------------------/-

e[--------------------------15--------------
B[-------------15Bu(16)-15Bu(16)Bd(15)13-15Bu(16)-
G[------------------------------------------
D[------------------------------------------
A[-7-6-5------------------------------------
E[-------8-5-5------------------------------

e[----------------------------------------------------]
B[----------------------------------------------------]
G[----------------------------------------------------]
D[---------------12-14-15-14-12-----14-12-------------]
A[-14-15-12-14-15--------------15-14-----15-14-12--12-]
E[-----------------------------------------------15---]

 Ahora toca la estrofa

Riff A
  Rompo las aceras  / crusas mi semblante
  En cada traspie   / en alguna ocación

Riff B
  Que haces, ya vez / ganas de abrazarme
  me siente tambien / alas sin razón
  cuando no me vez  / si yo no te miro
  hacer mi función  / me dices q no

Riff C
  Carcando mi piel  / q es de tu vida?
  En trozos de papel / peligro de verte
  Montar las valdosas / solo como nunca
  de mi habitación  /   solo como siempre

  Bueno ay teneis un buen ejemplo
  de como van las estrofas.
  Ahora vamos con el estribillo.

  1ªGuit. (Despellejo un.....)
e[------------------------------------------
B[------------------------------------------
G[-5--5-5-5-5-------------------------------
D[-5--5-5-5-5-2------2-2-2-2-3------3-3-3-3-
A[-3-3-3-3----2------2-2-2-2-3------3-3-3-3-
E[------------0-0-0-0-0-0----1-1-1-1-1-1----
  *
e[--------------------/
B[--------------------/
G[--------------------/*variacion al final
D[-5------5--3------3-/-5-5-5-5-]
A[-5------5--3------3-/-5-5-5-5-]
E[-3-3-3-3-1-1-1-1-1--/-3-3-3-3-]

  2ªGuit.
     [  X2      ]     [ X2      ]
e[---/-----------/---/-----------/---/-
B[---/-----------/---/-----------/---/-
G[-5-/-----------/---/-----------/---/-
D[-5-/-5-5-5-5-5-/-2-/-----------/-3-/-
A[-3-/-3-3-3-3-3-/-2-/-2-2-2-2-2-/-3-/-
E[---/-----------/-0-/-0-0-0-0-0-/-1-/-

  [ X2     ]    *[ X2       ]
e[-----------/---/------------/*Al final
B[-----------/---/------------/al primero sera:
G[-----------/---/------------/
D[-----------/-5-/------------/-3-------------]
A[-3-3-3-3-3-/-5-/-5-5-5-5-5--/-3-------------]
E[-1-1-1-1-1-/-3-/-3-3-3-3-3--/-1-------------]

Pues ay esta la canción, escuchad
el tema para estructurarlo bien
y coged el tiempo, (no, no y no,
no pienso sacar el solo del final.)
pero si os dire q esta en la tonalidad
de C Mayor, asin q improvisa y no seais
flojos, meted la 2ªforma de C en el estribillo
y dadle uen rock and roll con una pentatonica en
A. para quejas, dudas y demas
Slash_gibson@
Un saludo.
Suggest correction
Give kudos to tab author, rate the tab!
1 2 3 4 5
comments
print report bad tab
guest
You may want to rate the tab now too:
select rating
Wanna post a correction for this tab? Suggest correction