Oops, an error
Loading. Please wait.

Despellejo Tab

version 2
version 2

Whole song

92 views 1 this week
no commentswrite comment
1 2 3 4 5
3 more votes to show rating
add to favorites
launch autoscroll
font size
0
reset
how to read this tab
guitar tuner
×
Best way to learn
"Despellejo"
Autoscroll
slow
fast
+/-
esc
set tempo
stop
Hola gente Aquí os dejo con el pedazo de solo
La canción de marea despellejo.
El solo esta un 95 por ciento bien
Y tal como lo toca el maestro colibrí
Díaz

Solo 2:12


---------------------?-----------------------------------
------------8--------------------------------------------
-----5-7-7b---7b-----------------------------------------
-5s7-------------7-5-7-5-7-5---------------5-7-7---------
-----------------------------7-5-------5-7---------------
--------------------------------8-5-5-8------------------


--------------------------12----12-12-12-----12-12-------
----8-5-8s10-8-5-8s10-10b----10b---------10b--------10b--
-7b------------------------------------------------------
---------------------------------------------------------
---------------------------------------------------------
---------------------------------------------------------


---------------------------------------------------------
---------------------------------------------------------
---------------------------------------------------------
-------12----12-14-12----------------------12-14-15-14-12
--12-14---14----------14v---14-15-12-14-15---------------
---------------------------------------------------------


-------------------------------------------7-7-8----7-----
-------------------------------7s8-8-10-10-------10-------
----------------------------------------------------------
-------14-12----------------------------------------------
-15-14-------15-14-12----12v------------------------------
----------------------15----------------------------------


----------------------------------------------------------
-8-7h8p7--------------------------------------------------
----------9-7-6-7-6-----7---------------------------------
--------------------9v----10-9-10-9-10-9----7v------------
-----------------------------------------11---------------
----------------------------------------------------------


-----------------------------------------------------15---
-------------8----------8b--8b---10b-10b--10b----15b----15b
-7b-7b-7b-7b---7b-7b-7b-----------------------------------
----------------------------------------------------------
----------------------------------------------------------
----------------------------------------------------------


---------------------------15---------15-------------15---
-13-15bv--15b--15b-15b-15b----15b-15b----15b-----15b----15b
----------------------------------------------------------
----------------------------------------------------------
----------------------------------------------------------
----------------------------------------------------------


15b-15b-----15bv------------------------------------------
----------------------------------------------------------
----------------------------------------------------------
----------------------------------------------------------
----------------------------------------------------------
----------------------------------------------------------

Bueno eso es todo algunos bending medirlos
bien porque son de un medio y en otros
hay que subir y levantar la cuerda para
que suene igual. Los ultimos Bending he
improvisado un poco no se asimila bien.
Esta Solo va dedicado para Menxu.
De Alberto TKM No cambies
Suggest correction
Give kudos to tab author, rate the tab!
1 2 3 4 5
comments
print report bad tab
guest
You may want to rate the tab now too:
select rating
Wanna post a correction for this tab? Suggest correction