Oops, an error
Loading. Please wait.

El Rastro Tab

by Marea
90 views 1 this week
no commentswrite comment
1 2 3 4 5
2 more votes to show rating
add to favorites
launch autoscroll
font size
0
reset
how to read this tab
guitar tuner
Autoscroll
slow
fast
+/-
esc
set tempo
stop
INTRO:
--------------------------------------------------------
--------------------------------------------------------
-9------------9--------------------------------------9--
-9-9-5-7-5-4--7-9-5-7-5-4-2--9-9-10-9-2-2---9-9-10-9-7--
-7-9-5-7-5-4--7-7-5-7-5-4-0--9-9-10-9-2-2---9-9-10-9-7--
---7-3-5-3-2----7-3-5-3-2-0--7-9--8-7-0-0---7-7--8-7----
                                        PM.

ESTROFA 1:
-----------------------------------------
-----------------------------------------
--------------------7-7-------------999--   X2
----2-2-----5-5-----7-7-----2-2-----999--
----2-2-----5-5-----5-5-----2-2-----777--
----0-0-----3-3-------------0-0----------
      PM...   PM...   PM...   PM...


ESTROFA 2:
------------------
------------------
----5---7---9-9---   X4
----5---7---9-9---
----3---5---5-7---
------------------
              PM...


ESTROFA 3:
--------------------------------
--------------------------------
----3---5---7---2---3---5---7---  X2
----3---5---7---2---3---5---7---
----1---3---5---0---1---3---5---
--------------------------------


ORDEN:
INTRO
ESTROFA 1
ESTROFA 2
ESTROFA 1
ESTROFA 2
ESTROFA 3
SOLO
ESTROFA 1
ESTROFA 2
ESTROFA 3
ESTROFA 3


letra:

Voy a prenderme en la solapa
un caer que huele a flores,
un plantel con desamores,
y a hacerme un verso que te cagas
para ver si alguien lo traga
y engalana mis balcones,

no me hagas ni puto caso
si paso a tu vera
vendiendo fracaso como si fuera hierbabuena,
aunque las gitanas guapas no lo vendan más barato
en el rastro donde pulen la tristeza,

hoy traigo un trino que da calma,
que está ronco de aguardiente,
que está harto de la gente,
y traigo el peine de mi alma,
que ya está hasta los cojones
de peinar tirabuzones,

no me hagas ni puto caso
si paso a tu vera
vendiendo fracaso como si fuera hierbabuena,
aunque las gitanas guapas no lo vendan más barato
en el rastro donde pulen la tristeza,

te regalo mi fogata a fuego lento,
pa tus ojos de sarmiento,
y que no amanezca hoy,
por un beso yo me arrastro como un sapo,
como un príncipe en harapos,
en fin... como lo que soy,

y pa que no me eches en falta
llorando como un chiquillo
al ver marchar mi mercadillo
te dejo el sueño que más quiero,
para anclarlo en tu sombrero
o para hacerte unos zarcillos.
Suggest correction
Give kudos to tab author, rate the tab!
1 2 3 4 5
comments
print report bad tab
guest
You may want to rate the tab now too:
select rating
Wanna post a correction for this tab? Suggest correction