Oops, an error
Loading. Please wait.

Entre Hormigones Tab

by Marea
73 views 1 this week
no commentswrite comment
1 2 3 4 5
3 more votes to show rating
add to favorites
launch autoscroll
font size
0
reset
how to read this tab
guitar tuner
Autoscroll
slow
fast
+/-
esc
set tempo
stop
bueno ak esta el solo que tanto me piedieron cualquier otro solo o fraseo del
tema no dudes en pedirmelo..... califiquen la tablatura asi puedo
seguir subiendo mas solos de marea....saludos de argentina para el mundo

1|-----------------------------------------------------------
2|------------------------------------------------8-9----------
3|------3/5-8-8/10-----------------3/5-8-8/10-8p10---8-9--------
4|-1/3-6-----------6/8-6-5-6--1/3-6-----------------------------
5|--------------------------8---------------------------------
6|-----------------------------------------------------------

1|--8---------------------------------------------------------
2|------99----------------9-----------------9--9--9--11--11--11---13
3|----10--10-8-8--88--8-10-10-----8--8--8-10-10-10-12--12--12---14
4|--------------10--10----------10-10-10-------------------------
5|-----------------------------------------------------------
6|-----------------------------------------------------------

1|---------------------------------------------------------------------
2|-------------------------------------------------17b1715--------------------
3|-------------------------------------12-13-15/17--------171513(x3)----------
4|-------------------------12-14-15(x3)--------------------------171514(x3)----
5|--------------12-14-15(x3)---------------------------------------171514(x3)
6|-12-14-15-(x3)----------------------------------------------------171514(x3)

4|-12/15--------------6-6
5|-------3-3-3-1-1-1--6-6
6|--------------------4-4

bueno si necesitan otro solo o los fraceos del tema califiquen este tab
y envienme un correo o un mp al face 
dedicado a R-TA......
Suggest correction
Give kudos to tab author, rate the tab!
1 2 3 4 5
comments
print report bad tab
guest
Wanna post a correction for this tab? Suggest correction