Oops, an error
Loading. Please wait.

La Majada Tab

201 views 1 this week
no commentswrite comment
1 2 3 4 5
3 more votes to show rating
add to favorites
launch autoscroll
font size
0
reset
how to read this tab
guitar tuner
Autoscroll
slow
fast
+/-
esc
set tempo
stop
Help us to improve Ultimate-Guitar.com Take our survey!
×
ESTE ES EL SOLO LA PARTE MELODICA Y LA PARTE MAS ROCKERA ESPERO LES GUSTE

3|-----5-----5-8---8-7-8/10-8p10-8-7-------
4|-3-6---6-------8--------------------------

2|-----4-6------------------------
3|-5p7-----8-7-8-7-5-5p7-7/8-7-5---3/5/3-5-7-8-10-12-10-
4|------------------------------


2|------9----11-9-8-9-8-6-----------9/11(LS)-----------------------
3|10-12---10---------------10-12(LS)--------10 12 (LS)--10-8-7-5---
4|-----------------------------------------------------------------


parte rockeraa 2:46
2|-8-8-8---10-8-8-------------------------------
3|-8-8-8---10-8-8-hace esos rasguidos no se la cantidad ----
4|-8-8-8---10-8-8-----eso lo cuentan ustedes-------
5|------------------------------------------------

    minuto 2:49
2|-----------------------------------------------------------------
3|--sigue con los mismos que arriba--------------------------------
4|--ustedes cuentes los rasgueos--y siue con esto -----------------
  minuto 2:51

2|-------13---------------------------------------------------9-10-12-7-9-10
3|12b-10b--12b-10b-10---10------7-8-10-7-8-10-8-10-12-8-10-12--------
4|--------------------12----12-10-------------------------------------


1|-7-8-10-8-7-----------------------------------------------------------------
2|------------10-9-7-9-10/12----10101010-12121212-141414-121212-141414-151515-

1|-------------17b-----17---------------------
2|--171717-1919full19b-19--------------------


minuto 3:06 el sweep
1|-17h20-17------17h20-17--------17h20-
2|---------18--18---------18---18--------lo repite tamb puede sonar bien
3|-----------17--------------17------- todo en bajada sin la subida....


                          minuto 3:12
1|-------------------------------------------------------
2|--/20-/18-/17-15--------------20b-18b-17b-15b--------------
3|-----------------17-15------------------------17-17-14-----


minuto 3:14
4|---------17-15-------
5|-1515-17------ luego repite la parte del rasgueo del minuto 2:49 y fin...
si quieren el tab completo con los acordes
y todo eso califiquen gasten 2 segundos en poner una puntuacion
asi se que puedo seguir subiendo temas y solos
de guitarra
tengo muchos mas de marea que no estan....
saludo.....LEO DELMAS 
Suggest correction
Give kudos to tab author, rate the tab!
1 2 3 4 5
comments
print report bad tab
guest
You may want to rate the tab now too:
select rating
Wanna post a correction for this tab? Suggest correction