Oops, an error
Loading. Please wait.

Los Mismos Clavos Tab

version 2
version 2

Whole song

by Marea
242 views 1 this week
no commentswrite comment
1 2 3 4 5
3 more votes to show rating
add to favorites
×
Save as Personal and add changes to this tab that will be seen only by you. Learn more ›
×
You can save this tab as Personal to edit and correct it or add notes. All changes will be seen only by you. Learn more »
save as personal
new!
launch autoscroll
font size
0
reset
how to read this tab
guitar tuner
Autoscroll
slow
fast
+/-
esc
set tempo
stop
Guitarra principal:

-------------------------------------------------
-1-1-3-0----------------0-----0-----0------------
-0-0-0-0------0-0-----2---2-----2-----2----------
------------2-------3-------3-----3-----3--------
-3-3-3-3--3-------3------------------------------
-------------------------------------------------

--------------------------------------------0-1--
-1-1-3-0----------------0-----0-----0-----0------
-0-0-0-0------0-0-----2---2-----2-----2----------
------------2-------3-------3-----3-----3--------
-3-3-3-3--3-------3------------------------------
-------------------------------------------------


-----------8-7-5-------5-------------------------
-----5-6-8-------8-5-8---5-5-5-------------------
-5-7---------------------------------------------
-------------------------------------------------
-------------------------------------------------
-------------------------------------------------

-----------8-7-5-------5-------------------------
-----5-6-8-------8-5-8---5-5-5-------------------
-5-7---------------------------------------------
-------------------------------------------------
-------------------------------------------------
-------------------------------------------------

-----------8-7-5-------5-------------------------
-----5-6-8-------8-5-8---------------------------
-5-7---------------------------------------------
-------------------------------------------------
-------------------------------------------------
-------------------------------------------------


   [ch]Am            [ch]G[/ch]             LAm[/ch]
Me dices que me parezco a los caracoles
         [ch]G               LAm[/ch]
me sobra techo, me muero en soles,
         [ch]G[/ch]            [ch]F[/ch]
tras espesura del chaparrón
  [ch]Am              [ch]G[/ch]                LAm[/ch]
será que el camino bueno se ha vuelto malo
         [ch]G                LAm[/ch]
o que no quiero pegar ni un palo,
         [ch]G[/ch]                [ch]F[/ch]
que solo quiero escuchar tu voz.


[ch]G                          Cadd9    SOL[/ch]           [ch]F[/ch]
   Que siempre llego a la deshora que marca el corazón
[ch]G                        Cadd9    SOL             [ch]F[/ch]           SOL[/ch]
   y que, cuando estamos a solas, molesta el caparazón, el caparazón.

*Ahora empieza la segunda guitarra con el siguiente acompañamiento:

[ch]Am-[ch]G-LAm-SOL-LAm[/ch]-SOL[/ch]-[ch]F[/ch]
[ch]Am-[ch]G-LAm-SOL-LAm-SOL[/ch]-[ch]F[/ch]-SOL[/ch]

*Mientras la guitarra principal toca el siguiente punteado:

-5-8-7-5-------5-------- -5-8-7-5-------5--------
---------8-5-8---5-5-5-- ---------8-5-8---5-5-5--
------------------------ ------------------------
------------------------ ------------------------
------------------------ ------------------------
------------------------ ------------------------

-5-8-7-5-------5-------- -5-8-7-5-------5--------
---------8-5-8---5-5-5-- ---------8-5-8---5-5-5--
------------------------ ------------------------
------------------------ ------------------------
------------------------ ------------------------
------------------------ ------------------------

-----------5-------5----- -----------5-------5-----
-----5-6-8---5-5-5---8-5- -----5-6-8---5-5-5---8-5-
-5-7--------------------- -5-7---------------------
------------------------- -------------------------
------------------------- -------------------------
------------------------- -------------------------

-----------5-------5----- -----------      -----------
-----5-6-8---5-5-5---8-5- -----5-6-8-      -----5-6-8-
-5-7--------------------- -5-7-------  FA  -5-7-------SOL
------------------------- -----------      -----------
------------------------- -----------      -----------
------------------------- -----------      -----------


   [ch]Am              [ch]G[/ch]          LAm[/ch]
Me dicen que tus braguitas revolotean
             [ch]G             LAm[/ch]
que lo hacen sólo pa que las vea
           [ch]G[/ch]         [ch]F[/ch]
que llevan alas de desamor,
  [ch]Am            [ch]G[/ch]            LAm[/ch]
será que las ensuciamos tan malamente
           [ch]G             LAm[/ch]
que los colchones son mala gente,
            [ch]G[/ch]             [ch]F[/ch]
que siempre quieren tener razón.


[ch]G                          Cadd9    SOL[/ch]           [ch]F[/ch]
   Que siempre llego a la deshora que marca el corazón
[ch]G                        Cadd9    SOL             [ch]F[/ch]           SOL[/ch]
   y que, cuando estamos a solas, molesta el caparazón, el caparazón.


[ch]Am[/ch]       [ch]G[/ch]            [ch]F[/ch]
Mi casa está donde estás tú,
           [ch]Am[/ch] [ch]G[/ch]        [ch]F[/ch]
los mismos ojos, la misma luz.
[ch]Am[/ch]       [ch]G[/ch]            [ch]F[/ch]
Mi casa está donde estás tú,
           [ch]Am[/ch]   [ch]G[/ch]        [ch]F[/ch]
los mismos clavos, la misma cruz,
           [ch]Am[/ch]  [ch]G[/ch]            [ch]F[/ch]
los mismos clavos, el mismo ataúd.
           [ch]Am[/ch]   [ch]G[/ch]        [ch]F[/ch]
los mismos clavos, la misma cruz,
           [ch]Am  [ch]G            [ch]F[/ch]      SOL[/ch]     LAm[/ch]
los mismos clavos, el mismo ataúd.


Cadd9: -0-
       -3-
       -0-
       -2-
       -3-
       -0-

 Para las dos niñas.
Suggest correction
Give kudos to tab author, rate the tab!
1 2 3 4 5
comments
print report bad tab
guest
Wanna post a correction for this tab? Suggest correction