Oops, an error
Loading. Please wait.

Nana Del Quebranto Tab

1,881 views 3 this week
no commentswrite comment
1 2 3 4 5
please rate
add to favorites
launch autoscroll
font size
0
reset
how to read this tab
guitar tuner
Tab Pro tools
  • play this tab
  • loop segment
  • change instrument
  • show fretboard
  • metronome
×
Best way to learn
"Nana Del Quebranto"
Autoscroll
slow
fast
+/-
esc
set tempo
stop
Contributor
Difficulty
novice
CHORDS:> Do#m Fa# La Si Mi

*Intro:

e|--------------------------------------------------------------|
B|------------------9-------------------------------------------|
G|-11-9---9--11-------11---11--9-----11-9---9--11--8--9--11-----|
D|------9---9---99-------9----9--99-------9---9--99-99-99-------|
A|--------------------------------------------------------------|
E|--------------------------------------------------------------|
                                      Mi      Fa#
e|--------------------------------------------------------------|
B|------------------9-------------------------------------------|
G|-11-9---9--11-------11---11--9----------8-9-9>11-9-8----------|
D|------9---9---99-------9----9--99---7>9-----------------------|
A|--------------------------------------------------------------|
E|--------------------------------------------------------------|
   Do#m                             La
e|--------------------------------------------------------------|
B|------------------9-------------------------------------------|
G|-11-9---9--11-------11---11--9-----11-9---9--11--8--9--11-----|
D|------9---9---99-------9----9--99-------9---9--99-99-99-------|
A|--------------------------------------------------------------|
E|--------------------------------------------------------------|
   Si                                 Mi      Fa#
e|--------------------------------------------------------------|
B|------------------9-------------------------------------------|
G|-11-9---9--11-------11---11--9----------8-9-9>11-9------------|
D|------9---9---99-------9----9--99---7>9-----------------------|
A|--------------------------------------------------------------|
E|--------------------------------------------------------------|

        Do#m                               La
  No te vayas aún y hazles palmas a los buhoneros
                                       Si
  que traen la talega hasta arriba de huesos,
                                Mi                  Fa#
  que se han tirado la noche por mí, desenterrando sueños
          Do#m
  y hacen aliño si me destiño
           La                            Si
  y doy el día con la letanía de mi vertedero
            Mi                 Fa#
  que no me cabe debajo el sombrero.


  Do#m    Si          Do#m        Si
  No te duermas con mi nana de quebranto
            Do#m         Si               La
  que es el canto con el que despierta el sol
  Do#m      Si          Do#m       Si         Do#
  llorando como un niño chico cada vez que le dedico
        Si           La         Si
  esta sombra que me dio, donde sólo cabemos los dos


   Do#m                             La
e|--------------------------------------------------------------|
B|------------------9-------------------------------------------|
G|-11-9---9--11-------11---11--9-----11-9---9--11--8--9--11-----|
D|------9---9---99-------9----9--99-------9---9--99-99-99-------|
A|--------------------------------------------------------------|
E|--------------------------------------------------------------|
  La-Si                               Mi      Fa#
e|--------------------------------------------------------------|
B|------------------9-------------------------------------------|
G|-11-9---9--11-------11---11--9----------8-9-9>11-9------------|
D|------9---9---99-------9----9--99---7>9-----------------------|
A|--------------------------------------------------------------|
E|--------------------------------------------------------------|
   Do#m                             La
e|--------------------------------------------------------------|
B|------------------9-------------------------------------------|
G|-11-9---9--11-------11---11--9-----11-9---9--11--8--9--11-----|
D|------9---9---99-------9----9--99-------9---9--99-99-99-------|
A|--------------------------------------------------------------|
E|--------------------------------------------------------------|
   Si                                 Mi      Fa#
e|--------------------------------------------------------------|
B|------------------9-------------------------------------------|
G|-11-9---9--11-------11---11--9----------8-9-9>11-9------------|
D|------9---9---99-------9----9--99---7>9-----------------------|
A|--------------------------------------------------------------|
E|--------------------------------------------------------------|


        Do#m                                 La
  Si me cuca un ojillo la parca yo encojo la pata
                               Si
  pero la sonrisa siempre me delata
                        Mi                 Fa#
  déjame terminar de pintarle plumas a las ratas,
            Do#m
  que cojan vuelo desde tu pelo
         La                                            Si
  donde vivimos desde que los suelos cualquier día nos matan
             Mi                   Fa#
  si de ser cielo es de lo que se trata


  Do#m   Si           Do#m        Si
  No te duermas con mi nana de quebranto
            Do#m         Si               La
  que es el canto con el que despierta el sol
  Do#m     Si           Do#m       Si          Do#m
  llorando como un niño chico cada vez que le dedico
        Si           La         Si                Mi Mi Mi...
  esta sombra que me dio, donde solo cabemos tú y yo


  Mi                      Si                       La
  Cavé mi fosa entre tus cosas, aburrido de haber sido
                     Si
  el que más amor te dio,
     Mi                                      Si
  también el que más fatiguita y palabras malditas camino del huerto
        La                            Si       La-Sol#-La   Mi
  sin saber si olía a muerto nuestro triste y asqueroso corazón.

Mi Si La Si La
Mi Si La Si La
Do#m Si Do# Si Do#m Si La
Do#m Si Do# Si Do#m Si La Si


    Do#m                               La
  Peleándome con mi cabeza no me gana naide,
              Si               Mi   Fa#
  le falta cordura, me sobra vinagre,
          Do#m                          La
  y mala follá, y una boquita muy bien afilá,
         Si
  que prefiere triscar en la hierba
             Mi                 Fa#
  antes que rendirle cuentas al aire


  Do#m     Si          Do#m             Si        Do#m      Si        La
  Si te quedas conmigo aquí, sabrás que mi palabra, viste de rojo carmesí,
  Do#m     Si        Do#m            Si        Do#m
  dale cordel a su trajín, saldrá de mis entrañas
             Si               La            Si
  lo que vuelve en oro el serrín, o en más sangre con la que escribir.


*(Out)

   Do#m                              La-Si
e|--------------------------------------------------------------|
B|------------------9-------------------------------------------|
G|-11-9---9--11-------11---11--9------9-11----------------------|
D|------9---9---99-------9----9--99-----------------------------|
A|--------------------------------------------------------------|
E|--------------------------------------------------------------|
comments
We did not receive enough feedback on this tab! Please rate:
print report bad tab
1 2 3 4 5
I want to post or [tab]
guest
You may want to rate the tab now too:
select rating
Please do not post tabs as comments. Select "correction" instead!