Oops, an error
Loading. Please wait.

Paloma Que Pierde El Vuelo Chords

87 views 3 this week
no commentswrite comment
1 2 3 4 5
3 more votes to show rating
add to favorites
launch autoscroll
font size
0
reset
transpose
0
reset
display chords
guitar tuner
×
Best way to learn
"Paloma Que Pierde El Vuelo"
Autoscroll
slow
fast
+/-
esc
set tempo
stop
C A# A G  X3

Sobre el punteo: Re Do LA# LA

X2
-10-8----8-----------8--10-8----8-----------8-10-8----8----8-----------
------11---11--10-11--------11---11--10-11--------11---11---11-10----11
------------------------------------------------------------------12---
-----------------------------------------------------------------------
-----------------------------------------------------------------------
-----------------------------------------------------------------------
     A#               C A# LA G LA
e|-------------------|
b|------10-11-10-11--|
g|---12--------------|
d|-------------------|
a|-------------------|
e|-------------------|


   D                      C                    A#                  A
e|----------------------------------------------------------------------
b|--------------7--------------------5------------3---------------------
g|-7-------------7---5----------------5---3--------3---2------2-----2---
d|-7--------------7--5-----------------5--3---------3--2--------2-----2-
a|-5-----------------3--------------------1------------0----------0----0
e|----------------------------------------------------------------------

Mañana te vas a unir a otro que no soy yo

                                 mañana vas a vestir de negro mi corazón


   D                        C                    A#                A
e|-------------------------------------------------------------------------
b|-------------------------------------------------------------------------
g|-------------------------------------------------------------------------
d|---------------------7-5------------------5-3-2-------------------3-1-0--
a|-------------------------8-----------------------------------------------
e|-------------------------------------------------------------------------

Mañana cuando digas si con tu boca lo diras
                               y en lo más ondo de ti no se lo que sentiras


D                                                    p1     C
Mañanaaaaaaaa estrenaras el vestido que tanto deseabas lucir conmigo
                                                    A#    A#
Mañanaaaaaaaa aparecera bajo el cielo una paloma blanca que pierde el vuelo
A#                    G                 A         LA               D
Mañanaaaaaaa ay amor te vas a casar con otro, con otro que no soy yo


   D                      C                    A#                  A
-------------------------------------------------------------------------
-------------------7-----------5-------------------3---------------------
-7------------------7---5-------5---3---------------3---2------2-----2---
-7-------------------7--5--------5--3----------------3--2--------2-----2-
-5----------------------3-----------1-------------------0----------0----0
-------------------------------------------------------------------------

Mañana vas a brindar por una vida feliz
                          y yo sentiré doblar campanas dentro de mí


   D                        C                    A#               A
------------------------------------------------------------------------
------------------------------------------------------------------------
------------------------------------------------------------------------
---------------------7-5------------------5-3-2-------------------3-1-0-
-------------------------8----------------------------------------------
------------------------------------------------------------------------
Mañana tu vas a entregar una rosa de papel
                           a otro que no soy yo cuando te unas a su piel

D                                                        P1     C
Maaañanaaa estrenaras el vestido que tanto deseabas lucir conmigo
                                                    A#    A#       LA#
Maaañanaaa aparecera bajo el cielo una paloma blanca que pierde el vuelo
A#                    G                 A         LA             D
Maaañanaaa ay amor te vas a casar con otro, con otro que no soy yo
G        G        A         A               D
te vas a casar con otro, con otro que no soy yo


punteo del estribillo 1:(P1)
    G   F
 |-----------|
 |-----------|
 |--3---2----|
 |--5---3----|
 |-----------|
 |-----------|

Esta canción se la dedico a mi Bixo mimoso Tere
"¿Me llevas a pasear?" y mi hermana pequeña Nuri
"Pollo kichen bach",...
Suggest correction
Give kudos to tab author, rate the tab!
1 2 3 4 5
comments
print report bad tab
guest
You may want to rate the tab now too:
select rating
Wanna post a correction for this tab? Suggest correction