Oops, an error
Loading. Please wait.

Pan Duro Tab

version 1
version 1

Whole song

500 views 1 this week
no commentswrite comment
1 2 3 4 5
3 more votes to show rating
add to favorites
launch autoscroll
font size
0
reset
how to read this tab
guitar tuner
×
Best way to learn
"Pan Duro"
Autoscroll
slow
fast
+/-
esc
set tempo
stop
Aclaración: esta es la versión en vivo con Carlos Chaouen.
Copio el cuerpo de la otra tablatura.


Intro:

E||---------------|------------|---------------|---------[12]----|
B||---------------|-------8----|---------------|-----8---[12]----|
G||---------------|-------7----|---------------|-----7---[12]----|2 VECES
D||------------0--|-------9----|------------0--|-----9-----------|
A||-------0h-2----|-------7----|-------0h-2----|-----7-----------|
E||---------------|--0---------|---------------|--0--------------|


---------------|
---------------|
---------------|
------------0--|
-------0h-2----|
---------------|

Estrofas:

E--------0-------|---------0-------|---------0-------|---------------||
B--8-------8-----|---5-------5---5-|---3-------3---0-|---3-----------||
G----0-------0---|-----0-------0---|-----0-------0---|-----0---------||
D------9-------9-|-------7---------|-------5---------|-------5-----0-||
A-7--------------|-5---------------|-3---------------|-3-------0h2---||
E----------------|-----------------|-----------------|---------------||


Estribillo: (hace rasguidos con estos acordes)

   Em     C        D      D4       Am    A4 Am

|--0--------0------|--2-------3-------|--0------0--0-----|
|--0--------1------|--3-------3-------|--1------3--1-----|
|--0--------0------|--2-------2-------|--2------2--2-----|
|--2--------2------|--0-------0-------|--2------2--2-----|
|--2--------3------|------------------|--0------0--0-----|
|--0---------------|------------------|------------------|

Puente:

   F    G       [ch]Am[/ch]

|--1-----3-----|---0-----|------------------||
|--1-----3-----|---1-----|------------------||
|--2-----4-----|---2-----|------------------|| 4 veces
|--3-----5-----|---2-----|--------0h2p0-----||
|--3-----5-----|---0-----|--0-2-3-------3-2-||
|--1-----3-----|---------|------------------||

Puente termina en Lam

(Estrofas)

Arrugas que son surcos con retoños tiernos,
livianas como son los fardos de cargar los sueños
que tragan ruedas de molino y se les ven todos los huesos,
que saben que sus años tienen más de cuatro inviernos,

silencio por el techo, por los platos llenos,
silencio bañado en sudores de los jornaleros,
el sol lo han hecho sus jirones,
que saben lo que vale un beso,
que no quieren llevar los nombres de sus carceleros,


(Estribillo)

¿qué saben las tripas de puños cerrados?,
saben que las riegan los amargos tragos,
saben todo y más de tenerse en pie,
de la soledad,
saben porque está siempre duro el pan,


(Puente)


(Estrofas)

monedas de tan sucias tan desdibujadas,
odioso tintineo en manos encalladas,
y son las patas de sus mulas
si el látigo se llama hambre
las dueñas de caminos que no son de nadie,

cerrojos al antojo de la poca hondura,
abiertos para dar paso a las herraduras
que dejan huellas que los guían para volver a desquitarse,
para no tener que rasgarse más las vestiduras.


(Estribillo)

¿qué saben las tripas de puños cerrados?,
saben que las riegan los amargos tragos,
saben todo y más de tenerse en pie,
de la soledad,
saben porque está siempre duro el pan,

etc...


Pido permiso a Cristian por haber copiado el cuerpo y gracias.

Camilo Orquera
Suggest correction
Give kudos to tab author, rate the tab!
1 2 3 4 5
comments
print report bad tab
guest
You may want to rate the tab now too:
select rating
Wanna post a correction for this tab? Suggest correction