Oops, an error
Loading. Please wait.

Plomo En Los Bolsillos Tab

76 views 1 this week
no commentswrite comment
1 2 3 4 5
3 more votes to show rating
add to favorites
launch autoscroll
font size
0
reset
how to read this tab
guitar tuner
×
Best way to learn
"Plomo En Los Bolsillos"
Autoscroll
slow
fast
+/-
esc
set tempo
stop
Intro con flange
1|-------------------------------------------------------------------
2|--------------------------------------------------------------------
3|----5-6------5-3-5----5-6---------5-6------5-3-5-----5-6---------
4|-3-6---6-3--6------3-6---3-6---3-6----6-3-6-------3-6-----6-/6------
5|-----------6-----------------------------6----------------------
6|--------------------------------------------------------------------

Overdrive con mucho gain-
1|--------------------------------------------------------------11-8
2|---------------9-8--------11/13-11-9-8p9/13--9-8-11-9-11/13-11-----9--9p/11
3|---8---8p10-10----10-8p10-------------------------------------------10----
4|-10-10------------------------------------------------------------------
5|-----------------------------------------------------------------------
6|------------------------------------------------------------------

Comienza el canto
    [ch]F5[/ch]        [ch]D#5[/ch]              [ch]C#5[/ch]
La sed, remite y me repite cuando estás    los Fa5 son el del 8vo traste
[ch]F5[/ch]    [ch]D#5[/ch]                                  se repite siempre
       cortando las aletas del salmón     los acordes re# y do#
                                           se tocan muy por encima

que el río sólo quiso azulejar
para que no mordiera con fauces de ratón,
que no hacen mucha mella pero van
royendo las raíces cuando dices que te vas
en busca de otras alas que te ayuden a cruzar
con plomo en los bolsillos,

primer puente
1|------------------------------------------------------------------------
2|--------------------8--9vv--------9-8-11-9-11/13-11-13/14-13-11/9/8p9/16-14v
3|3/5-------5-3----8---10-------8-10--es un ligado con pua lo de arriba ojo!!
4|---6-3-6-3---6/10-10------8/10-------------------------------------------
5|-----------------------------------------------------------------
6|-------------------------------------------------------------------------

[ch]F5[/ch]        [ch]D#5[/ch]            [ch]C#5[/ch]
robé el grano a la gallina y al halcón,
[ch]F5[/ch]     [ch]D#5[/ch]                           todo igual que el principio
        lo siento, pero tuve que correr,
venían los demonios hacia aquí
cargando las trompetas,
y desde que no estás, despinto pesadillas para ti,
no caben más pecados en tus manos y, aun así,
recoges hasta el musgo que amuralla mi pesar,
que blinda mi esqueleto,

Estribillo
[ch]C#5[/ch]
hayyyyyyyyy
[ch]C5                        FA[/ch] pero del primer traste no el del 8vo
no le hagas caso al barquero,
[ch]C#5                              DO5                           FA5[/ch]
que en volandas no te llevará si le faltan los besos,
que agazapado está como verruga ardiendo
que no ha de morir y que espera el momento
para rebrotar,
SOLO


busqué refugio en otros lares y, al serrar
mi sueño tan despacio desperté
en el prado baldío donde están
muriendo los corderos,
por eso regresé, más áspero y cansado a este compás
que marcan las agujas pregonando que viví
entre tanto alboroto que no me paré a escuchar
el crujir de retamas.

alguno de mis TAB de marea


y mi preferido la majada


califiquen si quieren el solo o escriban
A  cuando este TAB pase las 20
calificaciones voy a subir el solo de guitarra y el ultimo puente del tema?
espero que les guste y lo disfruten, si pasa rapido los 20 puntos el TAB
del solo de guitarra ya lo tengo listo y lo tengo escrito
solo lo tengo que subir y ustedes tocarlo?.
Saludos leo delmas desde argentina Mendoza dedicado a R_TA
Suggest correction
Give kudos to tab author, rate the tab!
1 2 3 4 5
comments
print report bad tab
guest
You may want to rate the tab now too:
select rating
Wanna post a correction for this tab? Suggest correction