Oops, an error
Loading. Please wait.

Prima Tristeza Tab

14 views 1 this week
no commentswrite comment
1 2 3 4 5
3 more votes to show rating
add to favorites
launch autoscroll
font size
0
reset
how to read this tab
guitar tuner
×
Best way to learn
"Prima Tristeza"
Autoscroll
slow
fast
+/-
esc
set tempo
stop
-----------------------------------------------------------
-----------------------------------------------------------
-----------------------------------------------------------
------5-----7----------------------------------------------
2-----3-----5-----7-----5-5-(5)----------------------------
0-0-0---0-0---0-0-5-0-0-3-3-(3)----------------------------

Esto se repite hasta 8 veces (el acorde en paréntesis solo
se da en las veces pares), pero la última acaba así:

-----------------------------------------------------------
-----------------------------------------------------------
-----------------------------------------------------------
------5-----7----------------------------------------------
2-----3-----5----------------------------------------------
0-0-0---0-0---0-0-5-5-5-3-3-2------------------------------

Ahora empieza a cantar lo de??prima tristeza tu que le
enseñas las bragas a la vida, no te olvides de salir??

-----------------------------------------------------------
-----------------------------------------------------------
-----------------------------------------------------------
4-4-4-4-4---4-4-4-4-4---7-7-7-7-7---7-7-7-7-7--------------
2-2-2-2-2---2-2-2-2-2---5-5-5-5-5---5-5-5-5-5--------------
-----------------------------------------------------------

-----------------------------------------------------------
-----------------------------------------------------------
-----------------------------------------------------------
-----------------------------------------------------------
5-5-----5-----5-----5---5-------7-7-----7-----7-----7---7--
3-3-3-3-3-3-3-3-3-3-3-3-3-------5-5-5-5-5-5-5-5-5-5-5-5-5--

El guitarra que puntee igual pero lo termina:

-----------------------------------------------------------
-----------------------------------------------------------
------------------------7----------------------------------
--------------7S9-9-7-9---9-7-9----------------------------
7-7-----7--------------------------------------------------
5-5-5-5-5-5-5----------------------------------------------

Se repite 3 veces, pero el punteo ese solo las 2 primeras

-----------------------------------------------------------
-----------------------------------------------------------
9-12-10----------------------------------------------------
9-12-10----------------------------------------------------
7-10-8---7-----7-----7-----7-----7---7---------------------
---------5-5-5-5-5-5-5-5-5-5-5-5-5-5-5---------------------

-----------------------------------------------------------
-----------------------------------------------------------
9-12-10----------------------------------------------------
9-12-10--5-----5-----5-----5-----5---5---------------------
7-10-8---3-3-3-3-3-3-3-3-3-3-3-3-3-3-3---------------------
-----------------------------------------------------------

-----------------------------------------------------------
-----------------------------------------------------------
9-12-10----------------------------------------------------
9-12-10----------------------------------------------------
7-10-8---7-----7-----7-----7-----7---7---------------------
---------5-5-5-5-5-5-5-5-5-5-5-5-5-5-5---------------------

-----------------------------------------------------------
-----------------------------------------------------------
9-12-10----------------------------------------------------
9-12-10--5-----5-----5-----5-----5---5S7-----7-----7-----7-
7-10-8---3-3-3-3-3-3-3-3-3-3-3-3-3-3-3S5-5-5-5-5-5-5-5-5-5-
-----------------------------------------------------------

Esto es mas o menos lo que hace la guitarra solista la 1º y
 3º vez, la 2º y 4º son como la rítmica.

-----------------------------------------------------------
-----------------------------------------------------------
9-12-10--5-----4-----9-----7-----9-----5-------------------
9-12-10----0-0?--0-0---0-0---0-0---0-0---------------------
7-10-8-----------------------------------------------------
-----------------------------------------------------------

Después de esto se repite todo, pero no estoy muy seguro,
mejor escúchalo.

-----------------------------------------------------------
-----------------------------------------------------------
-------------------------------5--7------------------------
9-----9-----7-----9-----7S9----5--7------------------------
7-7-7-7-7-7-5-5-5-7-7-7-5S7----3--5------------------------
-----------------------------------------------------------


SOLO:

-----------------------------------------------------------
--------------------------------------------------10-------
--------7---7-----------7---7--------7-9-7-9(B)11----9(B)11
7S9-9-9---9---9---7S9-9---9--9---7S9-----------------------
-----------------------------------------------------------
-----------------------------------------------------------

-----------------------------------------------------------
-----------------------------------------------------------
9p7-7p6-6h7p6-------------------------------------7-7-7----
--------------9-7---7h9-9-7-------------------7h9-------9--
------------------9---------9-7-----------7h9--------------
--------------------------------10-7-7h10------------------

-----------------------------------------------------------
----------------10h12h13p12p10S8---------------------------
--------9h11h12------------------10-9-7h9p7----7-----------
9h11h12-------------------------------------10---10-9-7----
-----------------------------------------------------------
-----------------------------------------------------------

-------------------------------------------15--------------
--10----12----13---10-8-12(B)13----15(B)17----15(B)17(B)15-
-----------------------------------------------------------
7S10-10S12-12S14-------------------------------------------
-----------------------------------------------------------
-----------------------------------------------------------

15(B)17-15(B)17---10p8-8p7-7h8p7---------------------------
---------------------------------10(B)12-10(B)12(B)10-8-10-
-----------------------------------------------------------
-----------------------------------------------------------
-----------------------------------------------------------
-----------------------------------------------------------

-----------------------------------------------------------
12(B)13(B)12-10-8---------7h8-7h8-7h8----------------------
------------------9-7h9p7-------------9--------------------
-----------------------------------------------------------
-----------------------------------------------------------
-----------------------------------------------------------

--------15--------------15(B)17-15(B)17(B)15---------------
15(B)17----15(B)17(B)15------------------------------------
-----------------------------------------------------------
-----------------------------------------------------------
-----------------------------------------------------------
-----------------------------------------------------------

15(B)17(B)15-12----------------------------15(B)17-15(B)17
----------------15-13----13----13h15p13h15-----------------
----------------------14----14-----------------------------
-----------------------------------------------------------
-----------------------------------------------------------
-----------------------------------------------------------

El último bending se mantiene más.

Durante el solo, la guitarra ritmica hace:

-----------------------------------------------------------
-----------------------------------------------------------
-----------------------------------------------------------
------5-----7----------------------------------------------
2-----3-----5----------------------------------------------
0-0-0---0-0---0-0-5-5-5-3-3-2------------------------------

----------------------------------------------------------
----------------------------------------------------------
----------------------------------------------------------
4-4---4-4-------------------------------------------------
2-2---2-2--5-5-----5-----5-----5-5------------------------
-----------3-3-3-3-3-3-3-3-3-3-3-3------------------------

Esta linea de arriba se repite 2 veces

----------------------------------------------------------
----------------------------------------------------------
5---7-----------------------------------------------------
5---7-----------------------------------------------------
3---5---5-5-----5-----7-7-----7---------------------------
--------3-3-3-3-3-3-3-5-5-5-5-5-5-5-----------------------

Esta otra linea se repite 4 veces (cuando termina el solo)


7h9= Hammer on
9p7= Pull off
7(B)9= Bending de la nota de la izqda hasta la de la dcha
Suggest correction
Give kudos to tab author, rate the tab!
1 2 3 4 5
comments
print report bad tab
guest
You may want to rate the tab now too:
select rating
Wanna post a correction for this tab? Suggest correction