Oops, an error
Loading. Please wait.

Que Se Joda El Viento Chords

version 1
version 1

Whole song

Interactive

88 views 21 this week
no commentswrite comment
1 2 3 4 5
3 more votes to show rating
add to favorites
launch autoscroll
font size
0
reset
transpose
0
reset
display chords
guitar tuner
Autoscroll
slow
fast
+/-
esc
set tempo
stop
Help us to improve Ultimate-Guitar.com Take our survey!
×
Author
[Intro Tab]

e|-----------|-------------|-----------|---------------------|
B|-----------|-------------|-----------|---------------------|
G|-9-9-10--7-|-9-9-10--5-7-|-9-9-10--7-|-9-9-10--5-5-5-7-7-7-|
D|-7-7-7---7-|-7-7-7---3-5-|-7-7-7---7-|-7-7-7---3-3-3-5-5-5-|
A|-----------|-------------|-----------|---------------------|
E|-----------|-------------|-----------|---------------------|

e|----------------------------|------------------------------|
B|----------------------------|------------------------------|
G|-9-9-10-9-------5-4---5-4-4-|-9-9-10-9---------------------|
D|-7-7-7--7--3/5------5-------|-7-7-7--7-----5-4-------7-5-4-|
A|----------------------------|----------2-3-----3-3-5-------|
E|----------------------------|------------------------------|

e|------------------------------|--------------------------5-|
B|------------------------------|--------------------------5-|
G|--9-9-10-9-------5-4---5-4-4--|--9-9-10-9---5-5-5-7-7-7--5-|
D|--7-7-7--7---3-5-----5--------|--7-7-7--7---3-3-3-5-5-5--7-|
A|------------------------------|--------------------------7-|
E|------------------------------|--------------------------5-|

[Intro]

Am     Am  F  G


[Verse 1]

Am                    F             G            Am
Ponte el moño apretao sirena, k se joda el viento
Am                      F        G
Rompe las horquillas de espuma
Am                F         G            Am
Y déjame k te remache sonrisas de hierro
Am                    F       G
De esas k disipan las brumas
Am                      F           G         Am
Y se k entre los males nos lloverán cristales
Am                    F        G
Yo iré descalzo y tu desnuda
          Am              F         G         Am   F  G
Al son del amor, del ronco tambor k toke la luna

[Instrumental]

Am  F  G (x4)

[Verse 2]

Am                   F            G          Am
Vamos a trepar a la copa de este sol de enero
Am                       F      G
Y a hacer un nido en su ramaje
Am                    F           G        Am
Y allí reírnos viendo como a cada minutero
Am                 F        G
se lo devora el oleaje
Am                         F        G
K kuando entre mis brazos resuenen cañonazos
Am                        F        G
Yo iré perdido entre tus dunas
         Am                    F           G        Am     F   G
Dejándolo todo, kemando los tronos, donde reinen dudas...

[Chorus]

F            C  G                 Am               G                  F
Y báñate en mis ojos, k se joda el mar k kiera mecerte a su antojo...
F             C  G                Am     G  F
Si no somos nadie, nadie va a encontrar
F            C  G                Am                    G              F
Y si a las heridas kiere echarles sal solo va a encontrarse cerrojos
F            C  G                Am      G  Am
Y las cicatrices de la soledad...

[Verse 3]

Am                   F            G             Am
Coge resina para untarnos poco a poco el cuerpo
Am                    F      G
Por si vuelve la ventolera
Am                         F             G             Am
Y mientras tanto entre los huecos k nos deje el tiempo
Am                  F        G
Deja volar tu cabellera
Am                   F          G           Am
K si a nuestra locura vuelven nubes oscuras
Am                        F        G         Am
Nos cogerán frente con frente y codo con codo
Am              F       G       Am        F  G
Cada vez más solos, rodeados de gente...

[Chorus]

F            C  G                 Am               G                 F
Y báñate en mis ojos, k se joda el mar k kiera mecerte a su antojo...
F             C  G                Am      G   F
Si no somos nadie, nadie va a encontrar
F            C  G                Am                    G             F
Y si a las heridas kiere echarles sal solo va a encontrarse cerrojos
F            C  G                Am       G   F
Y las cicatrices de la soledad...
F            C  G                 Am               G                 F
Y báñate en mis ojos, k se joda el mar k kiera mecerte a su antojo...
F             C  G                Am      G   F
Si no somos nadie, nadie va a encontrar
F            C  G                Am                    G             F
Y si a las heridas kiere echarles sal solo va a encontrarse cerrojos
F            C  G             Am
Y las cicatrices...



************************************

| /  Slide up

************************************
Suggest correction
Give kudos to tab author, rate the tab!
1 2 3 4 5
comments
print report bad tab
guest
You may want to rate the tab now too:
select rating
Wanna post a correction for this tab? Suggest correction