Oops, an error
Loading. Please wait.

Sobran Bueyes Tab

by Marea
58 views 1 this week
no commentswrite comment
1 2 3 4 5
3 more votes to show rating
add to favorites
×
Save as Personal and add changes to this tab that will be seen only by you. Learn more ›
×
You can save this tab as Personal to edit and correct it or add notes. All changes will be seen only by you. Learn more »
save as personal
new!
launch autoscroll
font size
0
reset
how to read this tab
guitar tuner
Autoscroll
slow
fast
+/-
esc
set tempo
stop
ak les dejo otro de los SOLOS de marea, ya que nadie se animo
a sacar, no es la gran cosa solo fijate las partes mas lentas
y en las que usa menos volumen tenes que jugar mucho con los
potes de la guitarra para darle el brillo solo eso
espero que lo disfruten y buena musica PARA TODOS
si podes calificar este tab no hace falta estar registrado para darme una
puntuación por el esfuerzo... saludos leonardo delmas


1|-----------------------------------------------------------
2|-----------------8p98-------------------------------8-9h8--
3|-------3/5-8/10------8p108p10-8---8p10p8p10-------10-8-----
4|-1/3-6------------------------------10pm-------------------
5|-----------------------------------------------------------
6|-----------------------------------------------------------


1|--------------------------------------------8-9-8-10---10---10------10-------
2|9-8-11/13-11-9--8p10--9-11-9-8-----8p10-11-9------11vvv11vvv11vv9-8-11vv9----
3|----------------8p10-----------10--8p10----------------------------------8p10
4|----------------8p10---------------8p10--------------------------------------
5|-----------------------------------------------------------------------------
6|-----------------------------------------------------------------------------


1|--------------------------------------------------------
2|-8p9h8--------------------------------------------------
3|--------8p10-8------------------------------------------
4|-----------------11-10-8-6/   3-6/8-6-6-3-3-1-1/3-------
5|--------------------------------------------------------
6|--------------------------------------------------------

cualquier otro solo que necesites no dudes en dejarme un mensaje en mi
bandeja de entrada de la cuerda net
sino a mi face 
dedicado a R_TA como todos los temas que saco
saludos leo de Mendoza Argentina
Suggest correction
Give kudos to tab author, rate the tab!
1 2 3 4 5
comments
print report bad tab
guest
Wanna post a correction for this tab? Suggest correction