Oops, an error
Loading. Please wait.

Signo Tab

53 views 1 this week
no commentswrite comment
1 2 3 4 5
3 more votes to show rating
add to favorites
×
Save as Personal and add changes to this tab that will be seen only by you. Learn more ›
×
You can save this tab as Personal to edit and correct it or add notes. All changes will be seen only by you. Learn more »
save as personal
new!
launch autoscroll
font size
0
reset
how to read this tab
guitar tuner
Autoscroll
slow
fast
+/-
esc
set tempo
stop
Maresantos

esta es una buena canción chiclayana bueno ps espero q les guste 
mi interpretación saludos, jazmín vera

E---10b-10-9------------13p12p10-9h10b--10-9-----------
B--------------12-10b--------------------------12------
G-------------------------------------------------12b---
D------------------------------------------------------
A------------------------------------------------------
E------------------------------------------------------

E---10b-10-9----------------9-10p9--------17----15-----14----14-15
B-------------12-10b--10-----------10-12--------------------------
G--------------------------------------------14-----14----14------
D-----------------------------------------------------------------
A-----------------------------------------------------------------
E-----------------------------------------------------------------

E-----9--10p9-----12-10-9--------------------------
B--10---------10----------10-10h12-----------------
G--------------------------------------------------
D--------------------------------------------------
A--------------------------------------------------
E--------------------------------------------------

            Bm           G          A
Cuando los signos del tiempo te consuman
             Bm       G          A
Solo te bastara un instante de locura
         Bm            G        A
Para cortar toda distancia recogida
         Bm             G         A
Para evitar morir soñando con la luna

Eh eh eh eh ...


E---10b--10-9----------13-12-9h10--10-9------------
B-------------12-10h12------------------12---------
G------------------------------------------12b------
D--------------------------------------------------
A--------------------------------------------------
E--------------------------------------------------

             Bm            G         A
Las manos  ausencia conduce en mi destino
         Bm     G            A
Y tus deseos invocaron lo maligno
           Bm            G            A
Sin profundizar todo ese miedo tan insano
             Bm             G          A
Cuando es igual nacer perdido q encontrado
F#m          D                  A
    solo bastara q mueras más
F#m          D                  A
    para escapar de este infierno

 Bm         G         A
    y la noche te cobija
Bm             G         A
    cuando el frío te acaricie
           Bm                   G        A
quiero quitar quitar  el recuerdo de tu nombre
          Bm           G            A
quiero botar en una noche sea su cuerpo

eh eh eh


E---10b--10-9-----10b-9-----9--------------------12--10-9-
B--------------12-------12----12-10h12--12-14-15----------
G---------------------------------------------------------
D---------------------------------------------------------
A---------------------------------------------------------
E---------------------------------------------------------

E---------------------------------------------
B--10-8-7--5-7-8-7-5--7-5-3-2--2-3-5-7-5-3-2--
G---------------------------------------------
D---------------------------------------------
A---------------------------------------------
E---------------------------------------------

E-----------------------------------------------------------------------
B--3-5-7-5-3---5-7-5-3---5-7-5-3---5-7-5-3--5-8-7-5---7-8-7-5---7-8-7-5-
G-----------------------------------------------------------------------
D-----------------------------------------------------------------------
A-----------------------------------------------------------------------
E-----------------------------------------------------------------------

E--------9-10-9----
B--12-10--------10-
G------------------
D------------------
A------------------
E------------------

E-----------------------------------------------------------------------
B--3-5-7-5-3---5-7-5-3---5-7-5-3---5-7-5-3--5-8-7-5---7-8-7-5---7-8-7-5-
G-----------------------------------------------------------------------
D-----------------------------------------------------------------------
A-----------------------------------------------------------------------
E-----------------------------------------------------------------------

E----------10--/17--15P14-15P14--------14- -17--14
B--/10--12-----------------------17-15---- -------
G----------------------------------------- -------
D----------------------------------------- -------
A----------------------------------------- -------
E----------------------------------------- -------

Bm        G         A
  y la noche te cobija
Bm        G         A
  y la muerte nos acecha
         Bm           G          A
quiero cerrar las heridas de mi mente
          Bm           G           A
quiero flotar con la niebla del destino

eh eh E

E---------------------------------------------
B---------------------------------------------
G-5-4-5p4-7-5-4---5-4-2-0----0---------------
D---------------------------4-----4-5-7-5-4---
A---------------------------------------------
E---------------------------------------------

E------10-9-7----7------------------------------------------------------------------
B--10---------10---10-8-7-10-8-7----8-7---------------------------------------------
G---------------------------------9-----9-7-9/11-9-7--7-7-6-7-9-7-6-7-9--7-6-4-2-0--
D-----------------------------------------------------------------------------------
A-----------------------------------------------------------------------------------
E-----------------------------------------------------------------------------------

E--12-10-9----10-9------------------------------------------------------------
B----------12------12-10-12-10--8-7-8-10-8-7-5-3-5/7-8-10-8-7-5-3-5/7--3-3/5-3
G-----------------------------------------------------------------------------
D-----------------------------------------------------------------------------
A-----------------------------------------------------------------------------
E-----------------------------------------------------------------------------

E-----------------------------------------------------------------------
B--3-5-7-5-3---5-7-5-3---5-7-5-3---5-7-5-3--5-8-7-5---7-8-7-5---7-8-7-5-
G-----------------------------------------------------------------------
D-----------------------------------------------------------------------
A-----------------------------------------------------------------------
E-----------------------------------------------------------------------

E--------9-10-9----
B--12-10--------10-
G------------------
D------------------
A------------------
E------------------

E-----------------------------------------------------------------------
B--3-5-7-5-3---5-7-5-3---5-7-5-3---5-7-5-3--5-8-7-5---7-8-7-5---7-8-7-5-
G-----------------------------------------------------------------------
D-----------------------------------------------------------------------
A-----------------------------------------------------------------------
E-----------------------------------------------------------------------


E----------10--/17--15-15P14------14----14------
B--/10--12--------------------17-----17----15---
G-----------------------------------------------
D-----------------------------------------------
A-----------------------------------------------
E-----------------------------------------------
esto es rapido esto se hace 2 veces
E----14h15---14h15---14h15----14h15---15-14---
B-15------15------15-------15------15---------
G---------------------------------------------
D---------------------------------------------
A---------------------------------------------
E---------------------------------------------
 sigue esto
está un poco improvisado

E--14h15-14h15----------------------------
B---------------12h14-12-10-8-7-5-7-8-10--
G-----------------------------------------
D-----------------------------------------
A-----------------------------------------
E-----------------------------------------

E----14h15---14h15---14h15----14h15---17-15-14--------
B-15------15------15-------15------15-----------15/17-
G-----------------------------------------------------
D-----------------------------------------------------
A-----------------------------------------------------
E-----------------------------------------------------

LAS NOTAS VAN CON ARPEGIO LO SACAN USTEDES PS yo quiero evitar la fatiga
sugerencias, preguntas, aqui está mi correo zeus_2809@ 
Suggest correction
Give kudos to tab author, rate the tab!
1 2 3 4 5
comments
print report bad tab
guest
Wanna post a correction for this tab? Suggest correction