Oops, an error
Loading. Please wait.

No Matter Who chords

2,794 views 39 this week
2 commentsread comments
1 2 3 4 5
x 6
add to favorites
×
Save as Personal and add changes to this tab that will be seen only by you. Learn more ›
×
You can save this tab as Personal to edit and correct it or add notes. All changes will be seen only by you. Learn more »
launch autoscroll
font size
0
reset
transpose
0
reset
simplify chords
display chords
guitar tuner
edit
Autoscroll
slow
fast
+/-
esc
set tempo
stop
Author
Difficulty
Strumming
There is no strumming pattern for this song yet. and get +5 IQ
The chords are probably not 100% accurate, I wrote this from listening and watching live performances.
If you have any improvements or corrections feel free to contribute.

Chorus               Verse            
----------------     ---------------
Bb       x133xx      Bb       x133xx
Cm       x3534x      Cm       x3534x    
D#       x65343      Dm       xx0132
Dm       x533xx      Gm6      3x23xx
F        133xxx      F        133xxx
A#       688766      D#       x6888x
D#6      xxx888

  Bb to Cm Strumming Pattern
 [Intro] & occasionally in the Verses
   Bb                           Cm                               
e|---------------------------------|
B|------------------------------4--|
G|-3--------3p5p0-------3p5p0---3--|
D|-3---3p5---------3p5----------5--|
A|-1----------------------------3--|
E|---------------------------------|

This is the "No matter who"        And this is the second riff version
riff in the chorus:                (played in the second chorus)
           Bb     Cm                                   Cm
e|-------------------|              e|--------------------|
B|-----------------4-|              B|------------------4-|
G|---------3-------3-|              G|------------------3-|
D|---------3-------5-|              D|-----------0------5-|
A|-----1---1-------3-|              A|-----1---3---3----3-|
E|-1-3---------------|              E|-1-3----------------|

                                

[Verse 1]
                Bb
It hurts to be dancing round your telephone
                            Cm
Wondering if she's at home doing the same dance
         Bb
And you pass the time for an hour or two
                                 Cm
Wishing he was holding you with both hands

[Chorus]
               Bb           Cm
But no matter who let the phone ring
             D#           Dm         Cm        F      
There's no reason to be leaving you guessing
           Bb       Cm
No matter who got you down
           D#            Dm           Cm         F    
Even the weakest of the weak have come around
           A#   D#6   A#   D#6   A#   D#6     A# D#6 A#
No matter who

[Verse 2]
                Bb    
Our fearless beginning and the tragic end
         
For two lovers, but not two friends
 Cm
Hello regret
               Bb
You're thanking God above
                 
That you've been loved
                           Cm
While wishing you had never met

[Chorus]
               Bb           Cm
But no matter who let the phone ring
             D#           Dm         Cm        F      
There's no reason to be leaving you guessing
           Bb       Cm
No matter who got you down
           D#            Dm           Cm         F    
Even the weakest of the weak have come around
           A#
No matter who

   A#                                    D#6
e|-6--------------------------------------8--8-----| 
B|-6---8s11--11s13s11---8s11--11s13s11----8--8-----|
G|-7---8s10--10s12s10---8s10--10s12s10----8--8-----|  [x2]
D|-8-----------------------------------------------|
A|-8-----------------------------------------------|
E|-6-----------------------------------------------|


[Verse 3]
          Dm
Oh if I understand
                Gm6
How the heart behaves
             Cm
If you could see that man
              F
I know you'd say
 Bb
Still in love
     Bb
I'm still in love
     Cm    D#
Are you?

 Bb
Still in love
     Bb
I'm still in love
     Cm    D#
Are you?

[Outro]
A#   D#6   A#   D#6   A#   D#6    A# D#6 A#

            
            
Suggest correction
Creating personal tab
Creating personal tab
You can edit any tab online and save it as your Personal.

You can edit, replace or remove any tab part or add personal notes – all changes will be seen only by you.

Personal tabs can be accessed anytime from any device, even offline.
Learn more »
comments
print report bad tab
2 comments total.
0 reply
bzeiny 21 Apr 10, 2017 11:26 PM

Not sure on guitar, but on uke the chorus sounds good as:

Dm, Cm
No matter who / let the phone ring

Eb, F
Theres no reason to be leaving you / guessing

Dm, Cm
No matter who / got you down

Eb, F, Bb
Even the weakest of the weak have come / around / no matter who

Thanks for posting this!

0 reply
thedudepeters 10 Aug 04, 2017 12:30 PM

Great work on this tab. What a beautiful song. The only correction I have is on the little ornamental she adds before the final verse/outro.

A# D#6
e|-6------------------------------------8--8-----|
B|-6---6h8--11s13s11---6h8--11s13s11----8--8-----|
G|-7---7h8--10s12s10---7h8--10s12s10----8--8-----| [x2]
D|-8---------------------------------------------|
A|-8---------------------------------------------|
E|-6---------------------------------------------|

It's a bit tricky, but with a little practice, it works. Notice the hammer-ons as opposed to sliding when starting.

guest
You may want to rate the tab now too:
select rating
Wanna post a correction for this tab? Suggest correction