Oops, an error
Loading. Please wait.

You Dont Want Me Bass Tab

70 views 3 this week
no commentswrite comment
1 2 3 4 5
3 more votes to show rating
add to favorites
launch autoscroll
font size
0
reset
guitar tuner
Autoscroll
slow
fast
+/-
esc
set tempo
stop
Help us to improve Ultimate-Guitar.com Take our survey!
×
Author
[Verse 1]

G|---------------------------------------------------------------|
D|-----------2--2-4--4-4-2-4-----------2--2-4-4-2-3--------------|
A|-----2--4----------------------2--4----------------------------|
E|--5-------------------------5---------------------2-2--0--0-0--|


[Chorus]

G|---------------------------------------------------------------------------|
D|--7-7-7-5-5-5-5-5-4-4-4-3-3-3-3-3--7-7-7-5-5-5-5-5-4-4-4-3-3-3-2-----------|
A|-----------------------------------------------------------------4---------|
E|-------------------------------------------------------------------0--0-0--|

[Post Chorus]

G|------------------|
D|------------------|
A|------------------|
E|--5--3--2--1--5~--|


[Verse 2]

G|---------------------------------------------------------------|
D|-----------2--2-4--4-4-2-4-----------2--2-4-4-2-3--------------|
A|-----2--4----------------------2--4----------------------------|
E|--5-------------------------5---------------------2-2--0--0-0--|


[Chorus]

G|---------------------------------------------------------------------------|
D|--7-7-7-5-5-5-5-5-4-4-4-3-3-3-3-3--7-7-7-5-5-5-5-5-4-4-4-3-3-3-2-----------|
A|-----------------------------------------------------------------4---------|
E|-------------------------------------------------------------------0--0-0--|

[Post Chorus]

G|----------------------------------------------------------------|
D|--------/5-5-5-5-5-4-4-4-3-3-3-3-3------/5-5-5-5-5-4-4-4--------|
A|----------------------------------------------------------------|
E|--5-5-5----------------------------5-5-5-----------------1-1-1--|


[Bridge]

G|--------------------------------------------------------|
D|--------------------------------------------------------|
A|-----------9-8--7-6--5-4-----------9-8--7-6--5-4--------|
E|--5-6-7-9-----------------5-5-7-9-----------------3-5~--|

G|--------------|
D|--------------|
A|-------7--7-7-|
E|--5~----------|


[Outro}

G|--------------------------------------------------------------------|
D|--7-7-7-5-5-5-5-5-4-4-4-3-3-3-3-3--7-7-7-5-5-5-5-5-4-4-4-3-3-2-0----|
A|-----------------------------------------------------------------4--|
E|--------------------------------------------------------------------|

G|------------------------------|
D|------------------------------|
A|------------------------------|
E|--5-5-5-3-3-3-3-3-2~--1~--5~--|


************************************

| x   Dead note
| g   Grace note
| (n) Ghost note
| h   Hammer-on
| p   Pull-off
| r   Release
| >   Accented note
| t   Tapping
| b   Bend
| br  Bend release
| pb  Pre-bend
| pbr Pre-bend release
| /   Slide up
| \   Slide down
| ~   Vibrato
| s   Slap
| P   Pop
| PM  Palm mute
| TR  Trill
| N   Tremolo

************************************
Suggest correction
Give kudos to tab author, rate the tab!
1 2 3 4 5
comments
print report bad tab
guest
You may want to rate the tab now too:
select rating
Wanna post a correction for this tab? Suggest correction