Oops, an error
Loading. Please wait.

Youre Smiling But I Dont Believe You Tab

517 views 69 this week
no commentswrite comment
1 2 3 4 5
1 last vote to show rating
add to favorites
launch autoscroll
font size
0
reset
how to read this tab
guitar tuner
Autoscroll
slow
fast
+/-
esc
set tempo
stop
Help us to improve Ultimate-Guitar.com Take our survey!
×
Author
[Intro]

e|------------0-----------------------0------|
B|----1-----3---1---------1-----1---3---3-1--|
G|------2---------0--------------------------|
D|--3-----3---------0---2---2----------------|
A|--------------------3-------3---3----------|
E|-------------------------------------------|

e|-------------0-----------------------|
B|-----1-----3---1---------1-----0-1---|
G|---2---2---------0-------------------|
D|-3-------3---------0---2---2---------|
A|---------------------3-------3-3-3---|
E|-------------------------------------|


[Verse]

e|--------------------------------------------------------------------------------------|
B|------1---------1---------1----------1-----------------------------1-----1-----1------|
G|----2---2-----2---2----------------------------1---------1-------------------2--------|
D|--3-------3-3-------3---2---2-----2----2-------------------------2---2-----2----------|
A|----------------------3-------3-3--------3---2---2-----2---2---0-------0-0------------|
E|-------------------------------------------0-------0-0-------0------------------------|

e|----------------------------------------------------------------------------------------|
B|------1---------1----------1----------1-----------------------------1---------1-----1---|
G|----2---2-----2---2-----------------------------1---------1-----------------2-----2-----|
D|--3-------3-3-------3---2----2-----2----2-------------------------2---2-----------------|
A|----------------------3--------3-3--------3---2---2-----2---2---0-------0-0-------------|
E|--------------------------------------------0-------0-0-------0-----------------3-------|


[Chorus]

e|------------------------------------------------------------------------------------|
B|-------------------------1-----1-----1-------------------------------1-----1-----1--|
G|------2---2----2---2---------------------------1-----1-----1-------------------2----|
D|----3---3----3---3-----2---2-------2---2---------------------------2---2-----2------|
A|---------------------3-------3---3-------3---2---2-------2---2---0-------0-0--------|
E|--1---------1------------------------------0-------0---0-------0--------------------|

e|---------------------------------------------------|
B|------1-----------1-----------1-----1-----1-----1--|
G|----2---2---2---2---2---2--------------------------|
D|--3-------3---3-------3-----2---2-------2---2------|
A|--------------------------3-------3---3-------3----|
E|---------------------------------------------------|

[Intro]

e|------------0------------------------0------|
B|----1-----3---1----------1-----1---3---3-1--|
G|------2---------0---------------------------|
D|--3-----3---------0----2---2----------------|
A|---------------------3-------3---3----------|
E|--------------------------------------------|

e|-------------0-----------------------|
B|-----1-----3---1---------1-----0-1---|
G|---2---2---------0-------------------|
D|-3-------3---------0---2---2---------|
A|---------------------3-------3-3-3---|
E|-------------------------------------|

[Verse]

e|--------------------------------------------------------------------------------------|
B|------1---------1---------1----------1-----------------------------1-----1-----1------|
G|----2---2-----2---2----------------------------1---------1-------------------2--------|
D|--3-------3-3-------3---2---2-----2----2-------------------------2---2-----2----------|
A|----------------------3-------3-3--------3---2---2-----2---2---0-------0-0------------|
E|-------------------------------------------0-------0-0-------0------------------------|

e|----------------------------------------------------------------------------------------|
B|------1---------1----------1----------1-----------------------------1---------1-----1---|
G|----2---2-----2---2-----------------------------1---------1-----------------2-----2-----|
D|--3-------3-3-------3---2----2-----2----2-------------------------2---2-----------------|
A|----------------------3--------3-3--------3---2---2-----2---2---0-------0-0-------------|
E|--------------------------------------------0-------0-0-------0-----------------3-------|

[Chorus]

e|------------------------------------------------------------------------------------|
B|-------------------------1-----1-----1-------------------------------1-----1-----1--|
G|------2---2----2---2---------------------------1-----1-----1-------------------2----|
D|----3---3----3---3-----2---2-------2---2---------------------------2---2-----2------|
A|---------------------3-------3---3-------3---2---2-------2---2---0-------0-0--------|
E|--1---------1------------------------------0-------0---0-------0--------------------|

e|---------------------------------------------------|
B|------1-----------1-----------1-----1-----1-----1--|
G|----2---2---2---2---2---2--------------------------|
D|--3-------3---3-------3-----2---2-------2---2------|
A|--------------------------3-------3---3-------3----|
E|---------------------------------------------------|

[Bridge]

e|------------0------------------------0------|
B|----1-----3---1----------1-----1---3---3-1--|
G|------2---------0---------------------------|
D|--3-----3---------0----2---2----------------|
A|---------------------3-------3---3----------|
E|--------------------------------------------|

e|-------------0----------------------------|
B|-----1-----3---1---------1-----0-1-----1--|
G|---2---2---------0-----------------0------|
D|-3-------3---------0---2---2---------2----|
A|---------------------3-------3-3-3--------|
E|------------------------------------------|

e|------------3-0---------------------0------|
B|----1-----3-----1-------1-----1---3---3-1--|
G|------2-----------0------------------------|
D|--3-----3-------------2---2----------------|
A|--------------------3-------3---3----------|
E|-------------------------------------------|

e|------------0-----------------------|
B|--------------0------------1-----1--|
G|------1---------1---1---------------|
D|--------2----------------2---2------|
A|----2-----2-------2----0-------0-0--|
E|--0---------------------------------|

e|---------------------------------------------------|
B|----------------1--1-----1----------1~---1---------|
G|-------------1--2--2-----2-------1~------2----2----|
D|-------------2--2-------------2~--------------2----|
A|-------3~----2--0-------------3~----0~-0-----------|
E|--3-1~----0~---------0-3---1~----0~---------3---1--|

[Chorus 3]

e|-----------------------------------------------------------------------------------|
B|------------------------1-----1-----1-------------------------------1-----1-----1--|
G|------2---2---2---2---------------------------1-----1-----1-------------------2----|
D|----3---3---3---3-----2---2-------2---2---------------------------2---2-----2------|
A|--------------------3-------3---3-------3---2---2-------2---2---0-------0-0--------|
E|--1---------------------------------------0-------0---0-------0--------------------|


e|-------------------------------------2-------------------------------|
B|------1-----1------1-----1-----1-------1----------------------1~-----|
G|---------------------------------------------4---6---6--------2~-4~--|
D|----3---3--------3---3-------0---0---------------------7---5--3~-5~--|
A|---------------------------------------------------7-----7-------5~--|
E|--1-------1----1-------1---2-------2-----2-3---4-5---------------3~--|

[Outro]

e|------------0------------------------0------|
B|----1-----3---1----------1-----1---3---3-1--|
G|------2---------0---------------------------|
D|--3-----3---------0----2---2----------------|
A|---------------------3-------3---3----------|
E|--------------------------------------------|

e|-------------0----------------------------|
B|-----1-----3---1---------1-----0-1-----1--|
G|---2---2---------0-----------------0------|
D|-3-------3---------0---2---2---------2----|
A|---------------------3-------3-3-3--------|
E|------------------------------------------|

e|------------3-0---------------------0------|
B|----1-----3-----1-------1-----1---3---3-1--|
G|------2-----------0------------------------|
D|--3-----3-------------2---2----------------|
A|--------------------3-------3---3----------|
E|-------------------------------------------|

e|------------0------------------------------|
B|--------------0------------1-----1---------|
G|------1---------1---1----------------------|
D|--------2----------------2---2-------------|
A|----2-----2-------2----0-------0-0---------|
E|--0---------------------------------3--1~--|


************************************
| ~   Vibrato
************************************
Suggest correction
Give kudos to tab author, rate the tab!
1 2 3 4 5
comments
print report bad tab
guest
You may want to rate the tab now too:
select rating
Wanna post a correction for this tab? Suggest correction