Oops, an error
Loading. Please wait.

Broad Ripple Is Burning tab

version 2
version 2

Whole song

15,344 views 21 this week
2 commentsread comments
1 2 3 4 5
x 10
add to favorites
×
Save as Personal and add changes to this tab that will be seen only by you. Learn more ›
×
You can save this tab as Personal to edit and correct it or add notes. All changes will be seen only by you. Learn more »
launch autoscroll
font size
0
reset
how to read this tab
guitar tuner
edit
Autoscroll
slow
fast
+/-
esc
set tempo
stop
CAPO 2ND FRET

Note: This is the album version of the song.

The song is basically variations of the same two lines, with hammer-ons and slight 
changes between them.

t= thumb
u= upstroke
d= downstroke

It starts with this:


     Em                 C                  G
e|-----------------|------------------|---3333------33----0---0-|
B|-----------------|----11111---------|-------------------3---3-|
G|-----------------|------------------|-------------------------|
D|----2----0---0-2-|----20022---------|-------------------------|
A|----2--2---2-----|-3--33333---------|---2222------22----------|
E|--0--------------|------------------|-3-3333----3-33--3---2---|
                        dudud           t dudu    t du  t u t u

    Em              C                 G
e|-----------------|-------------------|--3333----33----3---3------|
B|-----------------|---1---------------|----------------0---0------|
G|-----------------|-----------0-------|---------------------------|
D|---22-------0----|---2---0h2----2-0--|---------------------------|
A|---22---0h2------|3--3---------------|--2222----22---------------|
E|-0---------------|-------------------|3-3333--3-33--3---2--------|

     du                                   dudu    du  t u t u


I find it easier to use the ring finger on A string and the middle finger on D string 
the intro Em flourishes,

it works well with the transition to the C chord, it just feels a little weird fingering 
chord that way.


Another Em 'flourish':

e|-------------|
B|-------------|
G|-------------|
D|---2-------0-|
A|---2---2-0---|
E|-0-----------|


Another way the intro is played, this one during the bridge"
e|-----------------|--------------------|
B|-----------------|--------------------|
G|-----------------|--------------------|
D|---2-----0---0-2-|----2p0--0-0h2--2-2-|
A|---2---2---2-----|--3-----------------|
E|-0---------------|--------------------|


For the chorus:

G/B 200003

        Em             C         G             G/B      Em
And I’m wasted you can taste it. Don’t look at me that way. Cause I’ll be
 C              Em            C       G/B   Em
hanging from a rope. I will haunt you like a ghost.



I think you get the idea. Anyway, good luck, have fun, and support this artist please, 
play a really good live show.

            
            
Suggest correction
Creating personal tab
Creating personal tab
You can edit any tab online and save it as your Personal.

You can edit, replace or remove any tab part or add personal notes – all changes will be seen only by you.

Personal tabs can be accessed anytime from any device, even offline.
Learn more »
comments
print report bad tab
2 comments total.
0 reply
DanteArias 98 Sep 20, 2013 01:03 PM

it should actually be this:

Em C G
e|-----------------|------------------|---3333------33----------|
B|-----------------|----11111---------|-------------------------|
G|-----------------|------------------|-------------------------|
D|----2----0---0-2-|----20022---------|-------------------------|
A|----2--2---2-----|-3--33333---------|---2222------22----------|
E|--0--------------|------------------|-3-3333----3-33--3-2-----|

and then back in to the Em

besides this one thing, a very solid tab

guest
You may want to rate the tab now too:
select rating
Wanna post a correction for this tab? Suggest correction