Oops, an error
Loading. Please wait.

Lost At Sea chords

841 views 9 this week
1 commentread comment
1 2 3 4 5
x 6
add to favorites
×
Save as Personal and add changes to this tab that will be seen only by you. Learn more ›
×
You can save this tab as Personal to edit and correct it or add notes. All changes will be seen only by you. Learn more »
launch autoscroll
font size
0
reset
transpose
0
reset
display chords
guitar tuner
edit
Autoscroll
slow
fast
+/-
esc
set tempo
stop
Author
Difficulty
Strumming
There is no strumming pattern for this song yet. and get +5 IQ
E         C#m      B
i've been lost at sea
         E         C#m          B
with a cloud of suspicion cast on me
       A      C#m        B
and i died in that dark room
           A       C#m      B
when that brat told me the truth

       E         C#m     B
so i kissed some girl i knew
          E         C#m         B
that had eyes that moved like yours do
          A       C#m             B
like the way you drink yourself blind
     A        C#m           B
to moons the stars in the skies could believe it was perfect

   E  C#m    B          E  C#m     B               E        C#m     B          E       C#m    B
e|-7---7----------------7---7------------------------------------------------------------------|
B|---9---------6/7--------9----------6/7-------10--9-----10--9--------7----10--9----10--9------|
G|--------9--8------------------9--8-----------------9----------9---8------------9--------9---8|
D|----------------------------------------------------------------9-------------------------9--|
A|---------------------------------------------------------------------------------------------|
E|---------------------------------------------------------------------------------------------|
 
         E           C#m      B
and we walked that freezing train
           E   C#m        B
when the city left your brain
           A     C#m       B
and you smiled at me and said
       A     C#m      B
"i'm living like i'm dead, and tomorrow i could be"

   E  C#m     B             E  C#m      B           E
e|-7---7--------------------7---7----------------------------------------------------------|
B|---9----------6/7-----------9-----------6/7----------------------------------------------|
G|---------9--8----------------------9--8-----------9--------------------------------------|
D|-----------------------------------------------------------------------------------------|
A|-----------------------------------------------------------------------------------------|
E|-----------------------------------------------------------------------------------------|

            
            
Suggest correction
Creating personal tab
Creating personal tab
You can edit any tab online and save it as your Personal.

You can edit, replace or remove any tab part or add personal notes – all changes will be seen only by you.

Personal tabs can be accessed anytime from any device, even offline.
Learn more »
comments
print report bad tab
1 comment total.
0 reply
leomilhouse 163 Jan 19, 2017 03:02 PM

Hey, your tab is not showing in the band's listed tabs. I think it's because you put the band's name as "Margot & The Nuclear So And Sos", and on UG it's listed as "Margot & The Nuclear So And So's", with an apostrophe. Just a heads up, cause your tab is great and this song is phenomenal. Cheers

guest
You may want to rate the tab now too:
select rating
Wanna post a correction for this tab? Suggest correction