Oops, an error
Loading. Please wait.

Skeleton Key Bass Tab

118 views 1 this week
no commentswrite comment
1 2 3 4 5
please rate
add to favorites
launch autoscroll
font size
0
reset
guitar tuner
Tab Pro tools
  • play this tab
  • loop segment
  • change instrument
  • show fretboard
  • metronome
×
Best way to learn
"Skeleton Key"
Autoscroll
slow
fast
+/-
esc
set tempo
stop
Contributor
Difficulty
[--------------------|
[--------------------|
[-9-7-5-2-4-5-4------|
[---------------5-2--|

[--------------------|
[--------------------|
[-9-7-5-2-4-5-4------|
[--------------------|

[-----------------------------|
[-----------------------------|
[-9-7-5-2-4-5-4---------------|
[---------------5-2-0-2-0-4-2-|
comments
We did not receive enough feedback on this tab! Please rate:
print report bad tab
1 2 3 4 5
I want to post or [tab]
guest
You may want to rate the tab now too:
select rating
Please do not post tabs as comments. Select "correction" instead!