Oops, an error
Loading. Please wait.

Cria Cuervos Chords

80 views 1 this week
no commentswrite comment
1 2 3 4 5
3 more votes to show rating
add to favorites
×
Save as Personal and add changes to this tab that will be seen only by you. Learn more ›
×
You can save this tab as Personal to edit and correct it or add notes. All changes will be seen only by you. Learn more »
save as personal
new!
launch autoscroll
font size
0
reset
transpose
0
reset
display chords
guitar tuner
Autoscroll
slow
fast
+/-
esc
set tempo
stop
Strumming
There is no strumming pattern for this song yet. and get +5 IQ
@Tab by warrior


                              
                              
Buenisimo este grupo y buenisimo este  lo tienes kon todos sus punteos menos el solo xD.
Praktika tokandolo pk aprenderas uno de los lick mas utilizados en rock.

Intro 
-----
1)

   A# C   D# G  F G#
E|--------------------------------------------|
B|--------------------------------------------|
G|-3--5---5-----------------------------------|
D|-3--5---5--5--3-6------------3-3-4-4-3-3----| Se repite una vez
A|-1--3---6--5--3-6---3-3--6-6------------6-6-|
E|-----------3--1s4-4-------------------------|  


2)            
            F F  F   F F  F   F F  F  F F   G G   G   G G   G   G G   G   A#   G  
E|--------------------------------------------------------------------------------|
B|--------------------------------------------------------------------------------|
G|--------------------------------------------------------------------------------|
D|----------3-3--3---3-3--3---3-3--3--------------2-3-5-6-5-3-5--3---3----8----5--|
A|----------3-3--3---3-3--3---3-3--3----------2-5------------------3------8----5--|
E|-4-3-4-3--1-1--1---1-1--1---1-1--1--1-4-1-3-----------------------------6----3--|  


Estrofa (mismos akordes k el intro 1)
-------
Mientras el mundo crece
yo sigo aki en mis trece
no tengo nada k objetar
La piel se me endurece
las ostias ya no duelen 
andando y sin mirar atras

F     G
Un enemigo fuerte
G
Camino hasta la muerte
A#                       G
Y si me la juegas me da igual

Estribillo:
----------
C          G#        C        F
Y hago las cosas sin parar de pensar
F                  G               C  [Lick1]
Que seguiremos criando cuervos al final
C          G#        C        F
Y hago las cosas sin parar de pensar
F                       G
que seguire sin estar cuerdo
F                  G
Ke seguiremos guiando al ciego
G#                     A#         C      [Lick2]
Ke seguiremos criando cuervos al final

[Lick1]
-------
E|--------------------|
B|--------------------|
G|--5-3---3-----------|
D|------5---5-3-------|
A|--------------6-5-3-|
E|--------------------|  

[Lick2]
-------
E|--------------------|
B|--------------------|
G|---------------3-5--|
D|-----1-3-5-3-5------|
A|-3-5----------------|
E|--------------------|  


                  Si no te aklaras kon algo,tienes dudas,sugerencias,krees ke esta mal 
                        o simplemente te apeteze enviar un e-mail aki estoy
                                    
                                    
            
                            
Suggest correction
Give kudos to tab author, rate the tab!
1 2 3 4 5
comments
print report bad tab
guest
Wanna post a correction for this tab? Suggest correction