Oops, an error
Loading. Please wait.

Always Be My Baby Tab

version 2
version 2

Whole song

5,724 views 3 this week
no commentswrite comment
1 2 3 4 5
worth learning
x 3
add to favorites
launch autoscroll
font size
0
reset
how to read this tab
guitar tuner
Autoscroll
slow
fast
+/-
esc
set tempo
stop
Help us to improve Ultimate-Guitar.com Take our survey!
×
Author
Difficulty
Capo
intermediate
4th fret
-------------------------------------------------------------------
   "Always be my Baby (acoustic interpretation)" - Mariah Carey
-------------------------------------------------------------------
Tabbed by: Justin Riray
Myspace:   www.myspace.com/riray
Youtube:   JustinRiray

Tuning: Capo 4th fret


     INTRO
e|----0----0------0-----0-----0----0------0-----0---|
B|---1-1--1-1----1-1---1-1---1-1--1-1----1-1---1-1--|
G|--0----0------0-----0-----0----0------0-----0-----| X 2
D|--------------------------------------------------|
A|-3----3------------------0----0-------------------|
E|-----------0-1-----3---------------0-1-----3------|

     CHORUS
e|-----------------------|
B|-1----------1----------|
G|-0---0-2--0-2--0-2--0--| X 2
D|-2---2-3--0-2--2-3--0--|
A|-3---2-3--2-0--2-3--2--|
E|-----0-1--3----0-1--3--|

     VERSE
e|-0~--0-0~--0-1~-----1~--3~---|
B|-1~--0-1~--0-1~-----1~--3~---|
G|-0~--0-2~--0-2~-----2~--4~---| X 2
D|-2~--2-2~--2-3~-----3~--5~---|
A|-3~--2-0~--2-3~-----3~--5~---|
E|-----0-----0-1~-----1~--3~---|

     BRIDGE             key change half step up
e|-0-----------------0--------------3-3--------|
B|-1--1-1--1-1--1-1--1--1-1--1-1--1-3-3--------|
G|-2--0-0--0-0--0-0--2--0-0--0-0--2-0-2--------|
D|-2--2-2--0-2--0-2--2--2-2--0-2--3------------|
A|-0--2-3---------3--0--2-3--------------------|
E|---------------------------------------------|

Play the rest of the song the same as the first parts but one fret up.
I was too lazy and tired to tab the actual key changed chords. Sorry!
Suggest correction
Give kudos to tab author, rate the tab!
1 2 3 4 5
comments
print report bad tab
guest
You may want to rate the tab now too:
select rating
Wanna post a correction for this tab? Suggest correction