Oops, an error
Loading. Please wait.

Beautiful Tab

18,048 views 6 this week
no commentswrite comment
1 2 3 4 5
excellent!
x 9
add to favorites
launch autoscroll
font size
0
reset
how to read this tab
guitar tuner
Autoscroll
slow
fast
+/-
esc
set tempo
stop
Help us to improve Ultimate-Guitar.com Take our survey!
×
Author
Difficulty
novice
My first tab, so sorry if it's not best format,etc.
My wife loves this song, so I had to learn it. Other tabs are close,
but I never found one that sounded right. This is pieced together from
others' work, and I figured out the last part by ear mostly.

e|-----------------------------------------|
B|-----------------------------------------|
G|-----------------------------------------|
D|-----------------------------------------|
A|--7----9--9~---7--7/9--9/11--11\9--9\7---|
E|-----------------------------------------|


e|-------------------------------------|
B|-------------------------------------|
G|-------------------------------------|
D|-------------------------------------|
A|--0----9--9~---0--0----9--9/11--9\7--|
E|-------------------------------------|

e|---------------------------------------------------------------------------|
B|---------------------------------------------------------------------------|
G|---------------------------------------------------------------------------|
D|---------------------------------------------------------------------------|
A|-------9--9~-----------9--9/11-----------11--11\9--9\7--0---9--9\7--7\5\7--|
E|--7------------7--7------------7--/9-9-------------------------------------|

Wasn't sure how to write the tab here ^^
Right after sliding A 9/11, pick E 7 and hold for half sec before sliding to 9.

At A 7/5/7 slide at the end, the song kicks in so it's hard to tell if it's just right;
don't stop on 5, and after sliding back to 7,
start from the beginning again. It plays throughout the song
Suggest correction
comments
print report bad tab
guest
You may want to rate the tab now too:
select rating
Please do not post tabs as comments. Select "correction" instead!