Oops, an error
Loading. Please wait.

Hero Tab

version 2
version 2

Whole song

Interactive

2,345 views 3 this week
no commentswrite comment
1 2 3 4 5
3 more votes to show rating
add to favorites
launch autoscroll
font size
0
reset
how to read this tab
guitar tuner
Autoscroll
slow
fast
+/-
esc
set tempo
stop
Help us to improve Ultimate-Guitar.com Take our survey!
×
Author
Difficulty
advanced
                                     Hero                                       


                                                                   Carey, Mariah
Track 1



     E  E  S S S S E  S S S S S S    S S E  S S S S E  S S S S S S  
E||-------------------0---------0-|------0--L---0------0---------0-|
B||--7-------------7--------------|----0------0-----7--------------|
G||--9--9--L---9-8------9-L---8---|---------------8------9-----8---|
D||--9-------9--------------9-----|--------------------------9-----|
A||--7----------------------------|--------------------------------|
E||-------------------------------|--9---------------------7-------|


                                                    verse                 
  E  E  E  E  Q    E  E     H        Q    Q         Q     Q    Q    Q     
-------------------------|---------------------||------------------------|
----------------------5--|-----------2----4----||---7-----7----7----7----|
--6--8--9----------4-----|--2--------2----4----||*--9-----9----9----9----|
-----------7--L----------|--2--------2----4----||*--9-----9----9----9----|
--0----------------------|-----------2----2----||---7-----7----7----7----|
-------------------4-----|--2------------------||------------------------|


   Q     Q     Q     Q       Q    Q    Q    Q       Q    Q    Q    Q     
--------------------------|----------------------|----------------------|
---7-----7-----7-----7----|--7----7----7----7----|--5----5----4----4----|
---9-----9-----9-----9----|--9----9----9----9----|--6----6----4----4----|
---9-----9-----9-----9----|--9----9----9----9----|--7----7----4----4----|
--------------------------|----------------------|------------2----2----|
--10----10----10----10----|--9----9----9----9----|--7----7--------------|


  Q    Q    Q    Q       Q    Q    Q    Q       Q    Q    Q    Q     
----------------------|--0----0----0----0----|--3----3----3----3----|
--5----5----5----5----|--3----3----3----3----|--3----3----3----3----|
--4----4----4----4----|--2----2----2----2----|--0----0----0----0----|
--6----6----6----6----|--0----0----0----0----|--2----2----2----2----|
--7----7----7----7----|----------------------|--3----3----3----3----|
--0----0----0----0----|--2----2----2----2----|----------------------|


                         chorus                                        
  Q    Q    Q    Q       Q      Q    Q    Q       Q    Q    Q    Q     
----------------------|------------------------|--4----4----4---------|
--5----5----4----4----|--7------7----7----7----|--5----5----5----9----|
--6----6----4----4----|--9------9----9----4----|--4----4----4----9----|
--7----7----4----4----|--9------9----9----4----|--6----6----6----9----|
------------2----2----|--7------7----7----6----|--4----4----4---------|
--7----7--------------|------------------------|-----------------7----|


  Q    Q    Q    Q       Q    Q    Q    Q       Q    Q    Q    Q     
--0----0----0---------|----------------------|----------------------|
--5----5----5----4----|--2----2----5----5----|--7----7----7----7----|
--6----6----6----4----|--2----2----6----6----|--9----9----9----4----|
--6----6----6----4----|--2----2----7----7----|--9----9----9----4----|
--0----0----0---------|----------------------|--7----7----7----6----|
-----------------4----|--2----2----7----7----|----------------------|


  Q    Q    Q    Q       Q    Q    Q    Q       Q    Q    Q    Q     
--4----4--------------|--0----0----0---------|----------------------|
--5----5----9----9----|--0----0----0----4----|--2----2----5----5----|
--4----4----9----9----|--2----2----2----4----|--2----2----6----6----|
--6----6----9----9----|--2----2----2----4----|--2----2----7----7----|
--4----4--------------|--0----0----0---------|----------------------|
------------7----7----|-----------------4----|--2----2----7----7----|


  E  E  S S S S E  S S S S S S    S S E  S S S S E  S S S S S S    
-------------------0---------0-|--4---4--L----------0---------0--||
--7-------------7--------------|--5-5-5--L-5-----5--0---------0--||
--9--9--L---9-8------9-L---8---|--4-4------4---4------2-----2---*||
--9-------9--------------9-----|--6-6------6-6------------2-----*||
--7----------------------------|--4---------------------0-0------||
-------------------------------|---------------------------------||


  Q    Q    Q    Q       Q    Q    Q    Q       Q    Q    Q    Q     
----------------------|--3----3----3----3----|------------2----2----|
--7----7----7----7----|--1----1----3----3----|--0----0----3----3----|
--9----9----9----9----|--0----0----0----0----|--0----0----2----2----|
--9----9----9----9----|--2----2----0----0----|--0----0----0----0----|
--7----7----7----7----|--3----3----2----2----|--2----2--------------|
----------------------|----------------------|--3----3--------------|


  Q    Q    Q    Q       E  E  E  E  H           Q    Q    Q    Q     
--3----3----3----3----|-----------2--L--------|--3----3----3----3----|
--1----1----3----3----|--0--3--3--3--L--------|--1----1----3----3----|
--0----0----0----0----|--0--2--0--2--L--------|--0----0----0----0----|
--2----2----0----0----|--0--0--2--0--L--------|--2----2----0----0----|
--3----3----2----2----|--2-----2--------------|--3----3----2----2----|
----------------------|--3--2--0--------------|----------------------|


  Q    Q    Q    Q       Q    Q    Q    Q       Q    Q    Q    Q     
------------2----2----|--3----3----3----3----|----------------------|
--0----0----3----3----|--1----1----3----3----|--5----5----5----4----|
--0----0----2----2----|--0----0----0----0----|--6----6----6----4----|
--0----0----0----0----|--2----2----0----0----|--7----7----7----4----|
--2----2--------------|--3----3----2----2----|-----------------2----|
--3----3--------------|----------------------|--7----7----7---------|


  chorus & out                                                               
  Q            Q    Q    Q       Q    Q    Q    Q       Q    Q    Q    Q     
------------------------------|--4----4----4---------|--0----0----0---------|
--7------------7----7----7----|--5----5----5----9----|--5----5----5----4----|
--9------------9----9----4----|--4----4----4----9----|--6----6----6----4----|
--9------------9----9----4----|--6----6----6----9----|--6----6----6----4----|
--7------------7----7----6----|--4----4----4---------|--0----0----0---------|
------------------------------|-----------------7----|-----------------4----|


  Q    Q    Q    Q       Q    Q    Q    Q       Q    Q    Q    Q     
----------------------|----------------------|--4----4--------------|
--2----2----5----5----|--7----7----7----7----|--5----5----9----9----|
--2----2----6----6----|--9----9----9----4----|--4----4----9----9----|
--2----2----7----7----|--9----9----9----4----|--6----6----9----9----|
----------------------|--7----7----7----6----|--4----4--------------|
--2----2----7----7----|----------------------|------------7----7----|


  Q    Q    Q    Q       Q    Q    Q    Q       Q    Q    Q    Q     
--0----0----0---------|----------------------|--0----0--------------|
--0----0----0----4----|--2----2----5----5----|--0----0----5----5----|
--2----2----2----4----|--2----2----6----6----|--2----2----4----4----|
--2----2----2----4----|--2----2----7----7----|--2----2----2----2----|
--0----0----0---------|----------------------|--0----0--------------|
-----------------4----|--2----2----7----7----|------------4----4----|


  H        H           E  E  S S S S E  S S S S S S  
--------------------|-------------------0---------0-|
--2--------5--------|--7-------------7--------------|
--2--------6--------|--9--9--L---9-8------9-L---8---|
--2--------7--------|--9-------9--------------9-----|
--------------------|--7----------------------------|
--2--------7--------|-------------------------------|


  S S E  S S S S E  S S S S S S    E  E  E  E  Q    E  E     W                  
------0--L---0------0---------0-|-------------------------|-------------------||
----0------0-----7--------------|-------------------5-----|--5----------------||
---------------8------9-----8---|--6--8--9----------6--8--|--4----------------||
--------------------------9-----|-----------7--L----7--9--|--6----------------||
--------------------------------|--0-------------------9--|--7----------------||
--9---------------------7-------|-------------------7--7--|--0----------------||




Duration Legend
---------------
W - whole
H - half
Q - quarter
E - 8th
S - 16th
T - 32nd
X - 64th
. - note dotted
|-n-|  - n-tuplets


Tablature Legend
----------------
L - tied note
x - dead note
g - grace note
(n) - ghost note
> - accentuded note
NH - natural harmonic
AH - artificial harmonic
TH - tapped harmonic
SH - semi harmonic
PH - pitch harmonic
h - hammer on
p - pull off
b - bend
br - bendRelease
pb - preBend
pbr - preBendRelease
brb - bendReleaseBend
\n/ - tremolo bar dip
\n - tremolo bar dive
-/n - tremolo bar Release up
/n\ - tremolo bar inverted dip
/n - tremolo bar return
-\n - tremolo bar Release down
S - shift slide
s - legato slide
/ -  slide into from below or out of upwards
\ -  slide into from above or out of downwards
~ - vibrato
W - wide vibrato
tr - trill
TP - tremolo picking
T - tapping
S - slap
P - pop
< - fade in
^ - brush up
v - brush down
Suggest correction
Give kudos to tab author, rate the tab!
1 2 3 4 5
comments
print report bad tab
guest
You may want to rate the tab now too:
select rating
Wanna post a correction for this tab? Suggest correction