Oops, an error
Loading. Please wait.

My All tab

version 1
version 1

Whole song

53,347 views 51 this week
9 commentsread comments
1 2 3 4 5
x 16
add to favorites
×
Save as Personal and add changes to this tab that will be seen only by you. Learn more ›
×
You can save this tab as Personal to edit and correct it or add notes. All changes will be seen only by you. Learn more »
launch autoscroll
font size
0
reset
how to read this tab
guitar tuner
edit
Autoscroll
slow
fast
+/-
esc
set tempo
stop
Author
-------------------------------------------------------------------------------
                             My All-Mariah Carey
-------------------------------------------------------------------------------
Tabbed by:Jeffkamungu
Email:geoffykom@yahoo.com

Tuning:Standard(capo1 for original key)

[Intro]
      F#m             Bm 7                C#                    F#m
e|-----2------0-|----------------|----------------------|-------------------2|
B|--2-----2-----|-----------3----|-----------2-------0--|---------------2----|
G|--------------|--------2-------|--------1------1------|--------0--2--------|
D|--------------|-----4----------|-----3----------------|------4-------------|
A|--------------|--2-------------|--4-------------------|----4---------------|
E|--------------|----------------|----------------------|--2-----------------|
       F#m              Bm                 C#                 F#m
e|-------2-----0-|----------------|---------------------|--------------------|
B|----2-----2----|--------------3-|------------2------0-|--------------------|
G|---------------|----------2-----|--------1------1-----|-----------0--2-----|
D|---------------|------4---------|-----3---------------|--------4-----------|
A|---------------|--2-------------|--4------------------|-----4--------------|
E|--2------------|----------------|---------------------|--2-----------------|
          F
e|---------------------------------------------------------------------------|
B|---------------------------------------------------------------------------|
G|--------3------------------------------------------------------------------|
D|------4--------------------------------------------------------------------|
A|----4----------------------------------------------------------------------|
E|--2------------------------------------------------------------------------|
Am thinking of you....
      F#m           Bm 7         C#                 F#m
e|-----2-----0-|------------|---------------|-----------------2--------------|
B|--2-----2----|--------3---|--------2---0--|-------------2------------------|
G|-------------|------2-----|------1---1----|--------2-----------------------|
D|-------------|----4-------|----3----------|------4-------------------------|
A|-------------|--2---------|--4------------|----4---------------------------|
E|-------------|------------|---------------|--2-----------------------------|
       F#m             Bm 7                C#                F#M
e|---------2-----0-|----------------|------------------|---------------------|
B|------2----2-----|-----------3----|----------2-----0-|---------------------|
G|-----------------|--------2-------|--------1----1----|-----------2---------|
D|-----------------|-----4----------|-----3------------|--------4------------|
A|-----------------|--2-------------|--4---------------|-----4---------------|
E|--2--------------|----------------|------------------|--2------------------|
      F#m(on E)            D                  C#             F#m
e|-----------------|---------------------|--------------|-------------2------|
B|-----------------|-----------0---------|-----------0--|---------2----------|
G|-----------2-----|--------2-----2---1--|--------1-----|-----2--------------|
D|--------4--------|-----4---------------|-----3--------|----4---------------|
A|-----4-----------|--5------------------|--4-----------|---4----------------|
E|--0--------------|---------------------|--------------|--2-----------------|
[Chorus]
        Bm 7               C#               F#m             F#m(on E)
e|-----------2----|------------------|-----------------|---------------------|
B|-----------3----|------------2---0-|-----------------|---------------------|
G|--------2-------|--------1---------|--2------------2-|-----------2---------|
D|-----4----------|-----3------------|------------4----|--------4------------|
A|--2-------------|--4---------------|---------4-------|-----4---------------|
E|----------------|------------------|------2----------|--0------------------|
          D                  Bm 7              E9 
e|--------------------|------------2--|------------2---0---0-----------------|
B|-----------3--------|------------3--|--------3-----------------------------|
G|--------2-----------|---------2-----|----1---------------------------------|
D|-----4--------------|-----4---------|--------------------------------------|
A|--5--------------4--|--2------------|--------------------------------------|
E|--------------------|---------------|--0-----------------------------------|
         Amaj 7                 D              Bm(on G#)       G
e|--------------0---------|--------------|----------------|------------------|
B|----------2-------2-----|-----------3--|-----------3----|----------0-------|
G|------1--------------1--|--------2-----|--------4-------|--------3---------|
D|------------------------|-----4--------|-----4----------|-------4----------|
A|--0---------------------|--5-----------|----------------|-----4------------|
E|------------------------|--------------|--4-------------|--3---------------|
       F#m            F#m(on E)         |              Bm 7
e|----------------|---------------|-----------2---|-------------2------------|
B|----------------|---------------|--------2------|-------------3------------|
G|------------2---|-----------2---|-----2---------|----------2---------------|
D|---------4------|--------4------|--1------------|------4-------------------|
A|-----4----------|-----4---------|---------------|--2-----------------------|
E|--2-------------|--0------------|---------------|--------------------------|
       C#                F#m          back to first line for verse 2
e|-------------1--|---------------------------2------------------------------|
B|-------------2--|--------------------2-------------------------------------|
G|----------1-----|-------------2--------------------------------------------|
D|------3---------|---------4------------------------------------------------|
A|--4-------------|------4---------------------------------------------------|
E|----------------|--2-------------------------------------------------------|


[Verse 1]
I am thinking of you
In my sleepless solitude tonight
If it's wrong to love you
Then my heart just won't let me right
'Cause I've drowned in you
And I won't pull through
Without you by my side 

[Chorus]
I'd give my all to have
Just one more night with you
I'd risk my life to feel
Your body next to mine
'cause I can't let go on
Living in the memory of your song
I'd give my all for your love tonight 

[Verse 2]
Baby can you feel me
Imagining I'm looking in your eyes
I can see you clearly
Vividly emblazoned in my mind
And yet you're so far
Like a distant star
I'm wishing on tonight 

[Chorus]
I'd give my all to have
Just one more night with you
I'd risk my life to feel
Your body next to mine
'cause I can't let go on
Living in the memory of your song
I'd give my all for your love tonight 

[Guitar Break]

[Chorus]
Give my all for your love
Tonight

            
            
Suggest correction
Creating personal tab
Creating personal tab
You can edit any tab online and save it as your Personal.

You can edit, replace or remove any tab part or add personal notes – all changes will be seen only by you.

Personal tabs can be accessed anytime from any device, even offline.
Learn more »
comments
print report bad tab
9 comments total. Showing first comments.
0 reply
Gscale 10 Dec 13, 2004 07:00 PM

People have been messing up where this tab is concerned, this is definetely great!.

0 reply
Kolobok 10 Jul 27, 2007 03:10 PM

If you can not listen music, why did you send your tab???

+2 reply
Kolobok 10 Jul 27, 2007 03:23 PM

Copy that to your word pad to get better view. It is original intro tab. Mail me and I'll send you midi of this one.


E E E Q Q E E Q H E E E E Q Q E
E||-----------3---------1--|--L-------------------|------------------------|
B||--------3-------3-------|----------4--------L--|--3--------3---------1--|
G||-----7------------------|-----0----------------|--------2-------2-------|
D||------------------------|----------------------|-----4------------------|
A||------------------------|--3-------------------|--5---------------------|
E||------------------------|----------------------|------------------------|


E H. E E E E Q Q E E H E E E
---------------------|-----------3------------|-----------------------|
---------------------|--------3-------3----6--|--L--4--------L--------|
-----3------------L--|-----3------------------|-----------------2--0--|
---------------------|------------------------|-----------------------|
---------------------|------------------------|--3--------------------|
--3------------------|--3---------------------|-----------------------|


E Q Q Q E E E E Q E Q
-----------------------|------------------------|-------||
----------3---------1--|-----------1----0-------|-------||
-----2---------2-------|--------2---------------|-------||
--0--------------------|-----0-------------0----|-------||
-----------------------|------------------------|-------||
-----------------------|--3---------------------|-------||

guest
You may want to rate the tab now too:
select rating
Wanna post a correction for this tab? Suggest correction