Oops, an error
Loading. Please wait.

Down tab

version 1
version 1

Whole song

6,052 views 90 this week
4 commentsread comments
1 2 3 4 5
x 5
add to favorites
×
Save as Personal and add changes to this tab that will be seen only by you. Learn more ›
×
You can save this tab as Personal to edit and correct it or add notes. All changes will be seen only by you. Learn more »
launch autoscroll
font size
0
reset
how to read this tab
guitar tuner
edit
Autoscroll
slow
fast
+/-
esc
set tempo
stop
Author
Difficulty
Tuning: EADGBe

[Intro/Verse]
e|--------------|------------------|
B|--------------|------------------|
G|------0--3~---|----------4~------|
D|-----1---5~---|----------5~------| x10
A|--3------5~---|----3-6---5~------|
E|---------3~---|-4--------3~------|
    .             .

[Chorus] 
(2nd instrument)
(only play on the 1st, 3rd, and 7th
measure of the chorus)
e|------8-----------------|--------|
B|--8-8---8--6-8-6---6-8--|--------|
G|-----------------8------|--------|
D|------------------------|--------|
A|------------------------|--------|
E|------------------------|--------|
             . . . . . .
 
[Verse 2]
e|---------------------------------|
B|---------------------------------|
G|------0--3~----------------------|
D|-----1---5~----------------------|
A|--3------5~-----------20---------|
E|---------3~-----4p-3~------------|

[Outro]
e|-----8---|15----------13---------|
B|-8-8---8-|---16-15-16----15-12---|
G|---------|---------------------12|
D|---------|-----------------------|
A|---------|-----------------------|
E|---------|-----------------------|


************************************

| ~  Vibrato
| .  Staccato
| p  Pull-off

************************************

            
            
Suggest correction
Creating personal tab
Creating personal tab
You can edit any tab online and save it as your Personal.

You can edit, replace or remove any tab part or add personal notes – all changes will be seen only by you.

Personal tabs can be accessed anytime from any device, even offline.
Learn more »
comments
print report bad tab
4 comments total. Showing first comments.
+1 reply
eaf42shultz 10 Apr 25, 2017 07:55 PM

Accurate tab! I just made a few adjustments of my own to make it easier for myself, but otherwise, very good!

0 reply
Gabe_22 71 May 07, 2017 07:24 PM

didn't like this contribution

guest
You may want to rate the tab now too:
select rating
Wanna post a correction for this tab? Suggest correction