Oops, an error
Loading. Please wait.

Acadia Tab

version 1
version 1

Whole song

6,096 views 1 this week
3 commentsread comments
1 2 3 4 5
2 more votes to show rating
add to favorites
launch autoscroll
font size
0
reset
how to read this tab
guitar tuner
Autoscroll
slow
fast
+/-
esc
set tempo
stop
Help us to improve Ultimate-Guitar.com Take our survey!
×
Author
Difficulty
================================================================================
                             ACADIA - Marianas Trench
================================================================================

Standard Tuning: EADBE


Done quickly, so dont be too mean.


INTRO:

Guitar 1:
       D               A              D                G
e|--------------------------------------------------------------------|
B|----------------------------------------------------777-777-777-777-|
G|----777-777-777-777-666-666-666-666-777-777-777-777-777-777-777-777-|
D|----777-777-777-777-777-777-777-777-777-777-777-777-555-555-555-555-| x2
A|----555-555-555-555-444-444-444-444-555-555-555-555-555-555-555-555-|
E|--------------------------------------------------------------------|

Guitar 2: (comes in 2nd time)
     D
e|---x---|
B|---x7--|
G|---x7--|
D|---x7--|let it ring...
A|---x5--|
E|---x5--|




VERSE 1:

Guitar 1:
       D               A              D                G
e|--------------------------------------------------------------------|
B|----------------------------------------------------777-777-777-777-|
G|----777-777-777-777-666-666-666-666-777-777-777-777-777-777-777-777-|
D|----777-777-777-777-777-777-777-777-777-777-777-777-555-555-555-555-| x3
A|----555-555-555-555-444-444-444-444-555-555-555-555-555-555-555-555-|
E|--------------------------------------------------------------------|

Guitar 2: (comes in 2nd time)
e|---5---5---5---5---5---5---5---5---5---5---5---5---3---3---3---3----|
B|-----3---3---3---3---3---3---3---3---3---3---3---3---3---3---3---3--|
G|--------------------------------------------------------------------|
D|--------------------------------------------------------------------| x2
A|--------------------------------------------------------------------|
E|--------------------------------------------------------------------|




CHORUS:

    B         A                       B        D        A               D
e|------------------------------------------------------------------------|
B|-44444444--------------------------44444444-77777777------------------7-|
G|-44444444-666666666666666666666666-44444444-77777777-6666666666666666-7-|x1
D|-44444444-777777777777777777777777-44444444-77777777-7777777777777777-7-|
A|-22222222-777777777777777777777777-22222222-55555555-7777777777777777-5-|
E|----------555555555555555555555555-------------------5555555555555555---|




VERSE 2:

Guitar 1: (comes in 2nd time)
       D               A              D                G
e|--------------------------------------------------------------------|
B|----------------------------------------------------777-777-777-777-|
G|----777-777-777-777-666-666-666-666-777-777-777-777-777-777-777-777-|
D|----777-777-777-777-777-777-777-777-777-777-777-777-555-555-555-555-| x2
A|----555-555-555-555-444-444-444-444-555-555-555-555-555-555-555-555-|
E|--------------------------------------------------------------------|


Guitar 2: 
e|---5---5---5---5---5---5---5---5---5---5---5---5---3---3---3---3----|
B|-----3---3---3---3---3---3---3---3---3---3---3---3---3---3---3---3--|
G|--------------------------------------------------------------------|
D|--------------------------------------------------------------------| x3
A|--------------------------------------------------------------------|
E|--------------------------------------------------------------------|




CHORUS 2:

    B         A                       B        D        A               D
e|------------------------------------------------------------------------|
B|-44444444--------------------------44444444-77777777------------------7-|
G|-44444444-666666666666666666666666-44444444-77777777-6666666666666666-7-|x1
D|-44444444-777777777777777777777777-44444444-77777777-7777777777777777-7-|
A|-22222222-777777777777777777777777-22222222-55555555-7777777777777777-5-|
E|----------555555555555555555555555-------------------5555555555555555---|




INTERLUDE:
                D           A  G           A  D           A  G          A
e|------------------------------------------------------------------------|
B|--------------7-----------------------------7---------------------------|
G|--------------7-----------6--4-----------6--7-----------6--4----------6-|
D|--------------7-----------7--5-----------7--7-----------7--5----------7-| 
A|--------------5-----------7--5-----------7--5-----------7--5----------7-|
E|--------------------------5--3-----------5--------------5--3----------5-|
ah-oh-ah-oh-oh ah-oh-ah-oh-oh ah-oh-ah-oh-oh ah-oh-ah-oh-oh ah-oh-ah-oh-oh

    D        A     F#        G
e|-----------------------------------|
B|--7--------------------------------|
G|--7--------6-----3---------4-------|
D|--7--------7-----4---------5-------|
A|--5--------7-----4---------5-------|
E|-----------5-----2---------3-------|
Ooooooooooooooh!   oh    uh uh




BRIDGE: 
    D             A          F#                   A
e|--------------------------------------------------------|
B|--7-----------------------------------------------------|
G|--7-------------6----------3--------------------4-------|
D|--7-------------7----------4--------------------5-------|
A|--5-------------7----------4--------------------5-------|
E|----------------5----------2--------------------3-------|
      Remember 1712 Acadia road fell, they tore the house down..




CHORUS 3:

    B         A                       B        D        A               D
e|------------------------------------------------------------------------|
B|-44444444--------------------------44444444-77777777------------------7-|
G|-44444444-666666666666666666666666-44444444-77777777-6666666666666666-7-|x1
D|-44444444-777777777777777777777777-44444444-77777777-7777777777777777-7-|
A|-22222222-777777777777777777777777-22222222-55555555-7777777777777777-5-|
E|----------555555555555555555555555-------------------5555555555555555---|




OUTRO
     D        A       B       G             D
e|-------------------------------------|  |-----|
B|--77777777---------44444444----------|  |--7--|
G|--77777777---------44444444----------|  |--7--|
D|--777777776666666664444444444444444--|x2|--7--|
A|--555555557777777772222222255555555--|  |--5--|
E|----------555555555--------33333333--|  |-----|
     Acadia is gone....acadia is gone..
     In the house.....When andrew...          Acadia is...Acadia is gone..



===============================================================================
Suggest correction
Give kudos to tab author, rate the tab!
1 2 3 4 5
comments
print report bad tab
3 comments total.
0 reply
Drazorback123 180 Jul 25, 2009 01:53 PM

is this all just strumming down? because it sounds like they're strumming up and down in the song.

0 reply
ljubavjelijepa 124 Jul 26, 2009 08:26 PM

No, its not. Sorry I forgot to add that in. But it's fairly easy to figure out when to strum up anyways.

0 reply
Drazorback123 180 Aug 04, 2009 03:33 PM

In the chorus it sounds like there's another guitar playing something else...I think you missed that...and near the end there's two notes you didn't put in either?

guest
You may want to rate the tab now too:
select rating
Wanna post a correction for this tab? Suggest correction