Oops, an error
Loading. Please wait.

Acadia Tab

version 3
version 3

Whole song

8,495 views 9 this week
1 commentread comment
1 2 3 4 5
excellent!
x 5
add to favorites
launch autoscroll
font size
0
reset
how to read this tab
guitar tuner
Tab Pro tools
  • play this tab
  • loop segment
  • change instrument
  • show fretboard
  • metronome
×
Best way to learn
"Acadia"
Autoscroll
slow
fast
+/-
esc
set tempo
stop
Contributor
tabbed by: grant tingstad
email me at foxybirdy@hotmail.com

e|---222-222-222-222-----------------222-222-222-222-333-333-333-333--|
B|---333-333-333-333-222-222-222-222-333-333-333-333-333-333-333-333--|
G|---222-222-222-222-222-222-222-222-222-222-222-222-222-222-222-222--|
D|-------------------222-222-222-222----------------------------------| x2
A|--------------------------------------------------------------------|
E|--------------------------------------------------------------------|

Guitar 2: (comes in 2nd time)
     
e|---x---|
B|---x7--|
G|---x7--|
D|---x7--|let it ring...
A|---x5--|
E|---x5--|




VERSE 1:

Guitar 1:

e|---222-222-222-222-----------------222-222-222-222-333-333-333-333--|
B|---333-333-333-333-222-222-222-222-333-333-333-333-333-333-333-333--|
G|---222-222-222-222-222-222-222-222-222-222-222-222-222-222-222-222--|
D|-------------------222-222-222-222----------------------------------| x2
A|--------------------------------------------------------------------|
E|--------------------------------------------------------------------|

Guitar 2: (comes in 2nd time)
e|---5---5---5---5---5---5---5---5---5---5---5---5---3---3---3---3----|
B|-----3---3---3---3---3---3---3---3---3---3---3---3---3---3---3---3--|
G|--------------------------------------------------------------------|
D|--------------------------------------------------------------------| x2
A|--------------------------------------------------------------------|
E|--------------------------------------------------------------------|




CHORUS:

                                                            
e|--------------------------------------------------------------------------|
B|--------------------------------------------------------------------------|
G|-444444----77777777------------------444444----77777777------------------7|
D|-444444-77-77777777-7777777777777777-444444-77-77777777-7777777777777777-7|
A|-222222-77-55555555-7777777777777777-222222-77-55555555-7777777777777777-5|
E|--------55----------5555555555555555--------55----------5555555555555555--|




VERSE 2:

Guitar 1: (comes in 2nd time)
                                                    
e|---222-222-222-222-----------------222-222-222-222-333-333-333-333--|
B|---333-333-333-333-222-222-222-222-333-333-333-333-333-333-333-333--|
G|---222-222-222-222-222-222-222-222-222-222-222-222-222-222-222-222--|
D|-------------------222-222-222-222----------------------------------| x2
A|--------------------------------------------------------------------|
E|--------------------------------------------------------------------|


Guitar 2: 
e|---5---5---5---5---5---5---5---5---5---5---5---5---3---3---3---3----|
B|-----3---3---3---3---3---3---3---3---3---3---3---3---3---3---3---3--|
G|--------------------------------------------------------------------|
D|--------------------------------------------------------------------| x3
A|--------------------------------------------------------------------|
E|--------------------------------------------------------------------|




CHORUS 2:

                                                                   
e|--------------------------------------------------------------------------|
B|--------------------------------------------------------------------------|
G|-444444----77777777------------------444444----77777777------------------7|
D|-444444-77-77777777-7777777777777777-444444-77-77777777-7777777777777777-7|
A|-222222-77-55555555-7777777777777777-222222-77-55555555-7777777777777777-5|
E|--------55----------5555555555555555--------55----------5555555555555555--|



INTERLUDE:
                                                              
e|-------------------------------------------------------------------------|
B|-------------------------------------------------------------------------|
G|--------------7-----------------------------7----------------------------|
D|--------------7-----------7--9-----------4--7-----------7--9----------4-0| 
A|--------------5-----------7--9-----------4--5-----------7--9----------4-0|
E|--------------------------5--6-----------2--------------5--7----------2--|
ah-oh-ah-oh-oh ah-oh-ah-oh-oh ah-oh-ah-oh-oh ah-oh-ah-oh-oh ah-oh-ah-oh-oh

                         
e|-----------------------------------|
B|-----------------------------------|
G|--7--------------------------------|
D|--7--------7-----4---------5-------| this part is on piano but this is what 
A|--5--------7-----4---------5-------| it would sound like if it were on 
E|-----------5-----2---------3-------| guitar
Ooooooooooooooh!   oh    uh uh




BRIDGE: 
                                              
e|--------------------------------------------------------|
B|--7-----------------------------------------------------|
G|--7-------------6----------3--------------------4-------|
D|--7-------------7----------4--------------------5-------|
A|--5-------------7----------4--------------------5-------|
E|----------------5----------2--------------------3-------|
      Remember 1712 Acadia road fell, they tore the house down..




CHORUS 3:

                                                                   
e|--------------------------------------------------------------------------|
B|--------------------------------------------------------------------------|
G|-444444----77777777------------------444444----77777777------------------7|
D|-444444-77-77777777-7777777777777777-444444-77-77777777-7777777777777777-7|
A|-222222-77-55555555-7777777777777777-222222-77-55555555-7777777777777777-5|
E|--------55----------5555555555555555--------55----------5555555555555555--|



OUTRO
                                        
e|-------------------------------------|  |-----|
B|-------------------------------------|  |--7--|
G|--77777777---------99999999----------|  |--7--|
D|--777777777777777779999999955555555--|x2|--7--|let ring
A|--555555557777777777777777755555555--|  |--5--|
E|----------555555555--------33333333--|  |-----|
     Acadia is gone....acadia is gone..
     In the house.....When andrew...          Acadia is...Acadia is gone..
comments
print report bad tab
1 comment total.
0 reply
JohnnyCakes101 wrote on October 20 2009, 08:27 pm

i saw your video on youtube of this song and think you're amazing ! :D
you have the song down perfectly! thank you!!!!!

I want to post or [tab]
guest
You may want to rate the tab now too:
select rating
Please do not post tabs as comments. Select "correction" instead!