Oops, an error
Loading. Please wait.

Alive Again Tab

1,411 views 1 this week
no commentswrite comment
1 2 3 4 5
2 more votes to show rating
add to favorites
launch autoscroll
font size
0
reset
how to read this tab
guitar tuner
Autoscroll
slow
fast
+/-
esc
set tempo
stop
Help us to improve Ultimate-Guitar.com Take our survey!
×
Author
Difficulty
intermediate
Marianas trench, Alive Again
 Tabbed By: Grant Tingstad 
Tuning - Standard: EADGBE 

Email me at . foxybirdy@hotmail.com 
e|--------------------------------------------------------------------|
B|---------------77--------------77--------------77--------------77---|
G|---88--66--88------88--66--88------88--66—-88------88--66--88-------|
D|-66--66--66--66--66--66--66--66-------------------------------------| x3
A|---------------------------------77--77--77--77--77--77--77--77-----|
E|--------------------------------------------------------------------|

e|--------------------------------------------------------------------|
B|--------------------------------------------------------------------|
G|-----------------------------------------------------------------4--|
D|-4444-2222222222-4444-2222222222-4444-2222222222-4444-2222222222-4--|
A|-4444-2222222222-4444-2222222222-4444-2222222222-4444-2222222222-2--|
E|-2222------------2222------------2222------------2222---------------|

e|--------------------------------------------------------------------|
B|---------------77--------------77--------------77--------------77---|
G|---88--66--88------88--66--88------88--66—-88------88--66--88-------|
D|-66--66--66--66--66--66--66--66-------------------------------------| x2
A|---------------------------------77--77--77--77--77--77--77--77-----|
E|--------------------------------------------------------------------|

e|--------------------------------------------------------------------|
B|--------------------------------------------------------------------|
G|--------------------------------------------------------------------|
D|-4444-2222222222-4444-2222222222-4444-2222222222-4444-2222222222----|
A|-4444-2222222222-4444-2222222222-4444-2222222222-4444-2222222222----|
E|-2222------------2222------------2222------------2222---------------|

e|--------------------------------------------------------------------------|
B|--------------------------------------------------------------------------|
G|-161616161616161616161616161616161616161616161616161616161616161616161613-|
D|-161616161616161616161616161616161616161616161616161616161616161616161613-|
A|-141414141414141414141414141414131313131313131313131313131313131313131311-|
E|--------------------------------------------------------------------------|

e|-----------------|
B|-----------------|
G|-----------------|
D|-44-2222222222---|
A|-44-2222222222---|
E|-22--------------|

e|--------------------------------------------------------------------------|
B|--------------------------------------------------------------------------|
G|-161616161616161616161616161616161616161616161616161616161616161616161613-|
D|-161616161616161616161616161616161616161616161616161616161616161616161613-|
A|-141414141414141414141414141414131313131313131313131313131313131313131311-|
E|--------------------------------------------------------------------------|

e|------------------------------------------------------------------------|
B|------------------------------------------------------------------------|
G|-----3333----3333---3333----3333----------------------------------------|
D|-6666----6666----6666---6666----2222-4444-2222-4444-2222-4444-2222-4444-|
A|-6666----6666----6666---6666----2222------2222------2222------2222------|
E|-4444----4444----4444---4444--------------------------------------------|

e|------------------------------------------------------------------------|
B|------------------------------------------------------------------------|
G|-----3333----3333----3333---3333----------------------------------------|
D|-6666----6666----6666---6666----2222-4444-2222-4444-2222-4444-2222-4444-|
A|-6666----6666----6666---6666----2222------2222------2222------2222------|
E|-4444----4444----4444---4444--------------------------------------------|
e|--------------------------------------------------------------------------|
B|--------------------------------------------------------------------------|
G|-161616161616161616161616161616161616161616161616161616161616161616161613-|
D|-161616161616161616161616161616161616161616161616161616161616161616161613-|
A|-141414141414141414141414141414131313131313131313131313131313131313131311-|
E|--------------------------------------------------------------------------|

e|-----------------|
B|-----------------|
G|-----------------|
D|-44-2222222222---|
A|-44-2222222222---|
E|-22--------------|

e|------------------------------------------------------------------------|
B|------------------------------------------------------------------------|
G|-1616161616161616161616161616161616161616161616161616161616161616161616-|
D|-1616161616161616161616161616161616161616161616161616161616161616161616-|
A|-1414141414141414141414141414141313131313131313131313131313131313131313-|
E|------------------------------------------------------------------------|

e|----------|
B|----------|
G|--4—3-----|
D|-2------4-| x4
A|----------|
E|-------0--|

e|-----------------------------------------------------------|
B|-----------------------------------------------------------|
G|-----------------------------------------------------------|
D|-1111111111111111111111111111111111111111111111111111111111| x5
A|-1111111111111111111111111111111111111111111111111111111111|
E|-9-9-9-9-9-9-9-9-9-9-9-9-9-9-9-9-9-9-9-9-9-9-9-9-9-9-9-9-9-|

e|-------------------------------------------------|
B|-------------------------------------------------|
G|-------------------------------------------------|
D|-----------------4-2--------------------4-2---44-| 
A|-4-2-----4-2---------4--4-2-----4-2---------4-44-|
E|-----4-0-----4-0------------4-0-----4-0-------22-|

e|-------------------------------------------------|
B|-------------------------------------------------|
G|-------------------------------------------------|
D|-6-66-4-44-2-(let ring)--------------------------| 
A|-6-66-4-22-2-------------------------------------|
E|-4-44-2-22---------------------------------------|
Suggest correction
Give kudos to tab author, rate the tab!
1 2 3 4 5
comments
print report bad tab
guest
You may want to rate the tab now too:
select rating
Wanna post a correction for this tab? Suggest correction