Oops, an error
Loading. Please wait.

All To Myself Bass Tab

version 1
version 1

Whole song

Interactive

4,129 views 1 this week
no commentswrite comment
1 2 3 4 5
please rate
add to favorites
launch autoscroll
font size
0
reset
guitar tuner
Autoscroll
slow
fast
+/-
esc
set tempo
stop
Help us to improve Ultimate-Guitar.com Take our survey!
×
Verse1 bass comes in at .14
G---------------------------------------------------------------------------|
D---------------------------------------------------------------------------|
A--------------------------------------------22224444-----------------------|
E-4444444444444444--11111111------------------------------------------------|
    Those are 11’s
G---------------------------------------------------------------------------|
D-----------------------------------------11-11-11-11-11-11-11-11-----------|
A---------------------------------2222--------------------------------------|
E-4444444444444444--1111----------------------------------------------------|


Pre-Chorus .31
G-----------------------------------------------------------------------------------|
D-----------------------------------------------------------------------------------|
A-------------------------6-6-6-6-4-4-4-4-------------------------------------------|
E-4-4-4-4-4-4-4-4-------------------------------------------------------------------|

G---------------------------------------------------------------------------|
D---------------------------------------------------------------------------|
A-----------------------4-4-4-4-/-2-2-2-2-----------------------------------|
E-4-4-4-4-4-4-4-4-----------------------------------------------------------|


Chorus .45
G----------------------------------------------------------------------------|
D----------------------------------------------------------------------------|
A---------------------------66666666-44444444--------------------------------|
E-4444444444444444-----------------------------------------------------------|

G----------------------------------------------------------------------------|
D----------------------------------------------------------------------------|
A---------------------------44444444-22222222--------------------------------|
E-4444444444444444-----------------------------------------------------------|


Verse 2 bass comes in at 1.04
G---------------------------------------------------------------------------|
D---------------------------------------------------------------------------|
A------------22-44--------------22-44---------------------------------------|
E—44/--11--------44--44--11-------------------------------------------------|

G---------------------------------------------------------------------------|
D---------------------------------------------------------------------------|
A----------------------------------------2222-4444--------------------------|
E-4444444444444444--11111111------------------------------------------------|

G----------------------------------------------------------------------------|
D-----------------------------------------11-11-11-11-11-11-11-11------------|
A---------------------------------2222---------------------------------------|
E-4444444444444444--1111-----------------------------------------------------|

Pre-Chorus
G---------------------------------------------------------------------------|
D---------------------------------------------------------------------------|
A-------------------------6-6-6-6-4-4-4-4-----------------------------------|
E-4-4-4-4-4-4-4-4-----------------------------------------------------------|

G---------------------------------------------------------------------------|
D---------------------------------------------------------------------------|
A-----------------------4-4-4-4-/-2-2-2-2-----------------------------------|
E-4-4-4-4-4-4-4-4-----------------------------------------------------------|


Chorus
G----------------------------------------------------------------------------|
D----------------------------------------------------------------------------|
A---------------------------66666666-44444444--------------------------------|
E-4444444444444444-----------------------------------------------------------|

G----------------------------------------------------------------------------|
D----------------------------------------------------------------------------|
A---------------------------44444444-22222222--------------------------------|
E-4444444444444444-----------------------------------------------------------|


Guitar solo 2.02
G----------------------------------------------------------------------------|
D----------------------------------------------------------------------------|
A------------2--------------2-2--------------2-------------2-2---------------|
E-44-44-44----44-44-44-----4-44-44-44---44-44-44------4----------------------|

Chorus variation 2.32 those are 13’s
G----------------------------------------------------------------------------|
D----------------------------------------------------------------------------|
A-6666666666666666-4444444444444444--22222222--1313131313131313--------------|
E----------------------------------------------------------------------------|


G----------------------------------------------------------------------------|
D----------------------------------------------------------------------------|
A---------------------------22222222-1313131313131313------------------------|
E----------------------------------------------------------------------------|

Chorus 3
G----------------------------------------------------------------------------|
D----------------------------------------------------------------------------|
A--------------------------666666666-44444444--------------------------------|
E-4444444444444444-----------------------------------------------------------|
11’s
G----------------------------------------------------------------------------|
D-----------------------------------------------11111111---------------------|
A---------------------------44444444-2222------------------------------------|
E-44444444444444444----------------------------------------------------------|


Ending
G--------------------------------------------------------------------------|
D--------------------------------------------------------------------------|
A--------------------------------------------------------------------------|
E--44--44--44--------------------------------------------------------------|
Suggest correction
Give kudos to tab author, rate the tab!
1 2 3 4 5
comments
print report bad tab
guest
You may want to rate the tab now too:
select rating
Wanna post a correction for this tab? Suggest correction