Oops, an error
Loading. Please wait.

All To Myself Tab

version 1
version 1

Whole song

Interactive

32,651 views 6 this week
2 commentsread comments
1 2 3 4 5
accurate
x 5
add to favorites
launch autoscroll
font size
0
reset
how to read this tab
guitar tuner
Autoscroll
slow
fast
+/-
esc
set tempo
stop
Help us to improve Ultimate-Guitar.com Take our survey!
×
Author
#----------------------------------PLEASE NOTE---------------------------------#
#This file is the author's own work and represents their interpretation of the #
#song. You may only use this file for private study, scholarship, or research. #
#------------------------------------------------------------------------------#


--- 'All To Myself' by Marianas Trench ---  tabbed by Bob M.


Only heard of Marianas Trench there a few hours hour ago, and likewise with 'All to Myself'. 
Good song, catchy. I saw that requests had been made for it to be tabbed and so said I'd 
give it a go anyway. It's all by ear so if it's not 100% that's why but it sounds pretty 
close to me. 

Drop D tuning* not in standard, although if it's essential to play in standard move the
notes on the d string (what would be 'e' in standard) a tone lower, ie move the note down
two frets in each case. But the resonation of the string sounds closer to the drop d. 



verse 1.

guitar 1 - 00:01

e---------|---------|---------|-------------------||
b---------|---------|---------|-------------------||
g---------|---------|---------|-------------------||
d--4--4---|--4--4---|--8--8---|--9--9---11--11----||
a--4--4---|--4--4---|--8--8---|--9--9---11--11----||
d--4--4---|--4--4---|--8--8---|--9--9---11--11----||


guitar 1 - 00:16

e---------|---------|---------|-------------------|
b---------|---------|---------|-------------------|
g---------|---------|---------|-------------------|
d--4--4---|--4--4---|--8--8---|--9--9---11--11----|
a--4--4---|--4--4---|--8--8---|--9--9---11--11----|
d--4--4---|--4--4---|--8--8---|--9--9---11--11----|


guitar 2 - 00:16

e--2--2--2--2---|--2--2--2--2---|--6--6--6--6---|--7--7--7--7----|
b--2--2--2--2---|--2--2--2--2---|--6--6--6--6---|--7--7--7--7----|
g--3--3--3--3---|--3--3--3--3---|--6--6--6--6---|--8--8--8--8----|
d--4--4--4--4---|--4--4--4--4---|--8--8--8--8---|--9--9--9--9----|
a---------------|---------------|---------------|----------------|
d---------------|---------------|---------------|----------------|

guitar 1

e---------|---------|---------------------|----------|
b---------|---------|---------------------|----------|
g---------|---------|---------------------|----------|
d--4--4---|--4--4---|----9--9---11--11----|--4--4----|
a--4--4---|--4--4---|----9--9---11--11----|--4--4----|
d--4--4---|--4--4---|----9--9---11--11----|--4--4----|


guitar 2

e--2--2--2--2---|--2--2--2--2---|--7--7--9--9---|--2--2--2--2----|
b--2--2--2--2---|--2--2--2--2---|--7--7--9--9---|--2--2--2--2----|
g--3--3--3--3---|--3--3--3--3---|--8--8--10-10--|--3--3--3--3----|
d--4--4--4--4---|--4--4--4--4---|--9--9--11-11--|--4--4--4--4----|
a---------------|---------------|---------------|----------------|
d---------------|---------------|---------------|----------------|


pre chorus - 00:30

guitar 1 

e---------------|---------------|---------------|-------------------|
b---------------|---------------|---------------|-------------------|
g---------------|---------------|---------------|-------------------|
d--4--4--4--4---|--4--4--4--4---|--8--8--8--8---|--11--11--11--11---|
a--4--4--4--4---|--4--4--4--4---|--8--8--8--8---|--11--11--11--11---|
d--4--4--4--4---|--4--4--4--4---|--8--8--8--8---|--11--11--11--11---|


guitar 2 00:30

e--2--2--2--2---|--2--2--2--2---|--6--6--6--6---|--9---9---9---9----|
b--2--2--2--2---|--2--2--2--2---|--6--6--6--6---|--9---9---9---9----|
g--3--3--3--3---|--3--3--3--3---|--6--6--6--6---|--10--10--10--10---|
d--4--4--4--4---|--4--4--4--4---|--8--8--8--8---|--11--11--11--11---|
a---------------|---------------|---------------|-------------------|
d---------------|---------------|---------------|-------------------|

guitar 1

e---------------|---------------|---------------|---------------|
b---------------|---------------|---------------|---------------|
g---------------|---------------|---------------|---------------|
d--4--4--4--4---|--4--4--4--4---|--8--8--8--8---|--9--9--9--9---|
a--4--4--4--4---|--4--4--4--4---|--8--8--8--8---|--9--9--9--9---|
d--4--4--4--4---|--4--4--4--4---|--8--8--8--8---|--9--9--9--9---|


guitar 2

e--2--2--2--2---|--2--2--2--2---|--6--6--6--6---|--7--7--7--7---|
b--2--2--2--2---|--2--2--2--2---|--6--6--6--6---|--7--7--7--7---|
g--3--3--3--3---|--3--3--3--3---|--6--6--6--6---|--8--8--8--8---|
d--4--4--4--4---|--4--4--4--4---|--8--8--8--8---|--9--9--9--9---|
a---------------|---------------|---------------|---------------|
d---------------|---------------|---------------|---------------|



Chorus 00:46

guitar 1

e---------------|---------------|---------------|---------------|
b---------------|---------------|---------------|---------------|
g---------------|---------------|---------------|---------------|
d--4--4--4--4---|--4--4--4--4---|--8--8--8--8---|--9--9--9--9---|
a--4--4--4--4---|--4--4--4--4---|--8--8--8--8---|--9--9--9--9---|
d--4--4--4--4---|--4--4--4--4---|--8--8--8--8---|--9--9--9--9---|


guitar 2

e--2--2--2--2---|--2--2--2--2---|--6--6--6--6---|--9---9---9---9----|
b--2--2--2--2---|--2--2--2--2---|--6--6--6--6---|--9---9---9---9----|
g--3--3--3--3---|--3--3--3--3---|--6--6--6--6---|--10--10--10--10---|
d--4--4--4--4---|--4--4--4--4---|--8--8--8--8---|--11--11--11--11---|
a---------------|---------------|---------------|-------------------|
d---------------|---------------|---------------|-------------------|


guitar 1 

e---------------|---------------|---------------|---------------|
b---------------|---------------|---------------|---------------|
g---------------|---------------|---------------|---------------|
d--4--4--4--4---|--4--4--4--4---|--8--8--8--8---|--9--9--9--9---|
a--4--4--4--4---|--4--4--4--4---|--8--8--8--8---|--9--9--9--9---|
d--4--4--4--4---|--4--4--4--4---|--8--8--8--8---|--9--9--9--9---|


guitar 2

e--2--2--2--2---|--2--2--2--2---|--6--6--6--6---|--7--7--7--7---|
b--2--2--2--2---|--2--2--2--2---|--6--6--6--6---|--7--7--7--7---|
g--3--3--3--3---|--3--3--3--3---|--6--6--6--6---|--8--8--8--8---|
d--4--4--4--4---|--4--4--4--4---|--8--8--8--8---|--9--9--9--9---|
a---------------|---------------|---------------|---------------|
d---------------|---------------|---------------|---------------|


01:01

guitar 1

e----------------|
b----------------|
g----------------|
d--4-4-4--4--4---|
a--4-4-4--4--4---|
d--4-4-4--4--4---|

e-------------|-------------|-----------------|
b-------------|-------------|-----------------|
g-------------|-------------|-----------------|
d--4--4--4--4-|-4--4--4--4--|--9--9--11--11---|
a--4--4--4--4-|-4--4--4--4--|--9--9--11--11---|
d--4--4--4--4-|-4--4--4--4--|--9--9--11--11---|


e----------------|
b----------------|
g----------------|
d--4-4-4--4--4---|
a--4-4-4--4--4---|
d--4-4-4--4--4---|

e-------------|-------------|-----------------|
b-------------|-------------|-----------------|
g-------------|-------------|-----------------|
d--4--4--4--4-|-4--4--4--4--|--9--9--11--11---|
a--4--4--4--4-|-4--4--4--4--|--9--9--11--11---|
d--4--4--4--4-|-4--4--4--4--|--9--9--11--11---|


e----------------|
b----------------|
g----------------|
d--4-4-4--4--4---|
a--4-4-4--4--4---|
d--4-4-4--4--4---|

e-------------|-------------|-----------------|
b-------------|-------------|-----------------|
g-------------|-------------|-----------------|
d--4--4--4--4-|-4--4--4--4--|--9--9--11--11---|
a--4--4--4--4-|-4--4--4--4--|--9--9--11--11---|
d--4--4--4--4-|-4--4--4--4--|--9--9--11--11---|


e----------------|
b----------------|
g----------------|
d--4-4-4--4--4---|
a--4-4-4--4--4---|
d--4-4-4--4--4---|

e-------------|-------------|-----------------|
b-------------|-------------|-----------------|
g-------------|-------------|-----------------|
d--4--4--4--4-|-4--4--4--4--|--9--9--11--11---|
a--4--4--4--4-|-4--4--4--4--|--9--9--11--11---|
d--4--4--4--4-|-4--4--4--4--|--9--9--11--11---|



pre chorus - 01:32


guitar 1 

e---------------|---------------|---------------|-------------------|
b---------------|---------------|---------------|-------------------|
g---------------|---------------|---------------|-------------------|
d--4--4--4--4---|--4--4--4--4---|--8--8--8--8---|--11--11--11--11---|
a--4--4--4--4---|--4--4--4--4---|--8--8--8--8---|--11--11--11--11---|
d--4--4--4--4---|--4--4--4--4---|--8--8--8--8---|--11--11--11--11---|


guitar 2

e--2--2--2--2---|--2--2--2--2---|--6--6--6--6---|--9---9---9---9----|
b--2--2--2--2---|--2--2--2--2---|--6--6--6--6---|--9---9---9---9----|
g--3--3--3--3---|--3--3--3--3---|--6--6--6--6---|--10--10--10--10---|
d--4--4--4--4---|--4--4--4--4---|--8--8--8--8---|--11--11--11--11---|
a---------------|---------------|---------------|-------------------|
d---------------|---------------|---------------|-------------------|

guitar 1

e---------------|---------------|---------------|---------------|
b---------------|---------------|---------------|---------------|
g---------------|---------------|---------------|---------------|
d--4--4--4--4---|--4--4--4--4---|--8--8--8--8---|--9--9--9--9---|
a--4--4--4--4---|--4--4--4--4---|--8--8--8--8---|--9--9--9--9---|
d--4--4--4--4---|--4--4--4--4---|--8--8--8--8---|--9--9--9--9---|


guitar 2

e--2--2--2--2---|--2--2--2--2---|--6--6--6--6---|--7--7--7--7---|
b--2--2--2--2---|--2--2--2--2---|--6--6--6--6---|--7--7--7--7---|
g--3--3--3--3---|--3--3--3--3---|--6--6--6--6---|--8--8--8--8---|
d--4--4--4--4---|--4--4--4--4---|--8--8--8--8---|--9--9--9--9---|
a---------------|---------------|---------------|---------------|
d---------------|---------------|---------------|---------------|



Chorus 01:47

guitar 1

e---------------|---------------|---------------|---------------|
b---------------|---------------|---------------|---------------|
g---------------|---------------|---------------|---------------|
d--4--4--4--4---|--4--4--4--4---|--8--8--8--8---|--9--9--9--9---|
a--4--4--4--4---|--4--4--4--4---|--8--8--8--8---|--9--9--9--9---|
d--4--4--4--4---|--4--4--4--4---|--8--8--8--8---|--9--9--9--9---|


guitar 2

e--2--2--2--2---|--2--2--2--2---|--6--6--6--6---|--9---9---9---9----|
b--2--2--2--2---|--2--2--2--2---|--6--6--6--6---|--9---9---9---9----|
g--3--3--3--3---|--3--3--3--3---|--6--6--6--6---|--10--10--10--10---|
d--4--4--4--4---|--4--4--4--4---|--8--8--8--8---|--11--11--11--11---|
a---------------|---------------|---------------|-------------------|
d---------------|---------------|---------------|-------------------|


guitar 1 

e---------------|---------------|---------------|---------------|
b---------------|---------------|---------------|---------------|
g---------------|---------------|---------------|---------------|
d--4--4--4--4---|--4--4--4--4---|--8--8--8--8---|--9--9--9--9---|
a--4--4--4--4---|--4--4--4--4---|--8--8--8--8---|--9--9--9--9---|
d--4--4--4--4---|--4--4--4--4---|--8--8--8--8---|--9--9--9--9---|


guitar 2

e--2--2--2--2---|--2--2--2--2---|--6--6--6--6---|--7--7--7--7---|
b--2--2--2--2---|--2--2--2--2---|--6--6--6--6---|--7--7--7--7---|
g--3--3--3--3---|--3--3--3--3---|--6--6--6--6---|--8--8--8--8---|
d--4--4--4--4---|--4--4--4--4---|--8--8--8--8---|--9--9--9--9---|
a---------------|---------------|---------------|---------------|
d---------------|---------------|---------------|---------------|


02:02

guitar 1


e---------|---------|---------|------|
b---------|---------|---------|------|
g---------|---------|---------|------|
d--4--4---|--4--4---|--4--4---|--9---|
a--4--4---|--4--4---|--4--4---|--9---|
d--4--4---|--4--4---|--4--4---|--9---|


guitar 2

solo - 02:10
              
               *

e--3-/-14--14----------------|------14-----------------|
b--------------11b-(12)-11r--|--11------11b-(12)-11r---|
g----------------------------|-------------------------|
d----------------------------|-------------------------|
a----------------------------|-------------------------|
d----------------------------|-------------------------|

guitar 1


e---------|---------|---------|------||
b---------|---------|---------|------||
g---------|---------|---------|------||
d--4--4---|--4--4---|--4--4---|--9---||
a--4--4---|--4--4---|--4--4---|--9---||
d--4--4---|--4--4---|--4--4---|--9---||




e-------14------------------|-------14---18b(19)18---14---|
b--11--------11b-(12)-11r---|--11-------------------------|
g---------------------------|-----------------------------|
d---------------------------|-----------------------------|
a---------------------------|-----------------------------|
d---------------------------|-----------------------------|


02:18

guitar 1 

e---------------|---------------|---------------|-------------------|
b---------------|---------------|---------------|-------------------|
g---------------|---------------|---------------|-------------------|
d--4--4--4--4---|--4--4--4--4---|--8--8--8--8---|--11--11--11--11---|
a--4--4--4--4---|--4--4--4--4---|--8--8--8--8---|--11--11--11--11---|
d--4--4--4--4---|--4--4--4--4---|--8--8--8--8---|--11--11--11--11---|



e---------------|---------------|---------------|---------------|
b---------------|---------------|---------------|---------------|
g---------------|---------------|---------------|---------------|
d--4--4--4--4---|--4--4--4--4---|--8--8--8--8---|--9--9--9--9---|
a--4--4--4--4---|--4--4--4--4---|--8--8--8--8---|--9--9--9--9---|
d--4--4--4--4---|--4--4--4--4---|--8--8--8--8---|--9--9--9--9---|



Chorus - 02:33


guitar 1

e---------------|---------------|---------------|---------------|
b---------------|---------------|---------------|---------------|
g---------------|---------------|---------------|---------------|
d--4--4--4--4---|--4--4--4--4---|--8--8--8--8---|--9--9--9--9---|
a--4--4--4--4---|--4--4--4--4---|--8--8--8--8---|--9--9--9--9---|
d--4--4--4--4---|--4--4--4--4---|--8--8--8--8---|--9--9--9--9---|


guitar 2

e--2--2--2--2---|--2--2--2--2---|--6--6--6--6---|--9---9---9---9----|
b--2--2--2--2---|--2--2--2--2---|--6--6--6--6---|--9---9---9---9----|
g--3--3--3--3---|--3--3--3--3---|--6--6--6--6---|--10--10--10--10---|
d--4--4--4--4---|--4--4--4--4---|--8--8--8--8---|--11--11--11--11---|
a---------------|---------------|---------------|-------------------|
d---------------|---------------|---------------|-------------------|


guitar 1 

e---------------|---------------|---------------|---------------|
b---------------|---------------|---------------|---------------|
g---------------|---------------|---------------|---------------|
d--4--4--4--4---|--4--4--4--4---|--8--8--8--8---|--9--9--9--9---|
a--4--4--4--4---|--4--4--4--4---|--8--8--8--8---|--9--9--9--9---|
d--4--4--4--4---|--4--4--4--4---|--8--8--8--8---|--9--9--9--9---|


guitar 2

e--2--2--2--2---|--2--2--2--2---|--6--6--6--6---|--7--7--7--7---|
b--2--2--2--2---|--2--2--2--2---|--6--6--6--6---|--7--7--7--7---|
g--3--3--3--3---|--3--3--3--3---|--6--6--6--6---|--8--8--8--8---|
d--4--4--4--4---|--4--4--4--4---|--8--8--8--8---|--9--9--9--9---|
a---------------|---------------|---------------|---------------|
d---------------|---------------|---------------|---------------|

e---------------|---------------|---------------|---------------|
b---------------|---------------|---------------|---------------|
g---------------|---------------|---------------|---------------|
d--4--4--4--4---|--4--4--4--4---|--8--8--8--8---|--9--9--9--9---|
a--4--4--4--4---|--4--4--4--4---|--8--8--8--8---|--9--9--9--9---|
d--4--4--4--4---|--4--4--4--4---|--8--8--8--8---|--9--9--9--9---|


guitar 2

e--2--2--2--2---|--2--2--2--2---|--6--6--6--6---|--9---9---9---9----|
b--2--2--2--2---|--2--2--2--2---|--6--6--6--6---|--9---9---9---9----|
g--3--3--3--3---|--3--3--3--3---|--6--6--6--6---|--10--10--10--10---|
d--4--4--4--4---|--4--4--4--4---|--8--8--8--8---|--11--11--11--11---|
a---------------|---------------|---------------|-------------------|
d---------------|---------------|---------------|-------------------|


guitar 1 

e---------------|---------------|---------------|---------------|
b---------------|---------------|---------------|---------------|
g---------------|---------------|---------------|---------------|
d--4--4--4--4---|--4--4--4--4---|--8--8--8--8---|--9--9--9--9---|
a--4--4--4--4---|--4--4--4--4---|--8--8--8--8---|--9--9--9--9---|
d--4--4--4--4---|--4--4--4--4---|--8--8--8--8---|--9--9--9--9---|


guitar 2

e--2--2--2--2---|--2--2--2--2---|--6--6--6--6---|--7--7--7--7---|
b--2--2--2--2---|--2--2--2--2---|--6--6--6--6---|--7--7--7--7---|
g--3--3--3--3---|--3--3--3--3---|--6--6--6--6---|--8--8--8--8---|
d--4--4--4--4---|--4--4--4--4---|--8--8--8--8---|--9--9--9--9---|
a---------------|---------------|---------------|---------------|
d---------------|---------------|---------------|---------------|


guitar 1


e---------|---------|---------|
b---------|---------|---------|
g---------|---------|---------|
d--4--4---|--4--4---|--4--4---|
a--4--4---|--4--4---|--4--4---|
d--4--4---|--4--4---|--4--4---|



e------------------------------------------------------------------------||
b------------------------------------------------------------------------||
g----------------------- Love always to Éad x ---------------------------||
d------------------------------------------------------------------------||
a------------------------------------------------------------------------||
d------------------------------------------------------------------------||


Tablature Notation:

|| ... play bar twice 
b . . . bend
/ . . . slide
* . . . here hit the Bb note (ie the 11th fret on the b string) let the note sound first
then bend it up so that it produces a B note (ie similar to that of the 12th fret on the
b string and hence why it is in brackets in the tablature). Then release (r) the note back
to the original Bb. Simple!
() . . . this is in reference to the last bar of the solo this is the note that should be
produced from the bend of the note prior to the brackets.  


Wow that took a while, Im exhausted!


My email is ultimate-guitartabber@hotmail.com if you have any questions or
comments but constructive criticism only please.

25.03.09

Suggest correction
comments
print report bad tab
2 comments total.
0 reply
Drazorback123 180 wrote on March 25 2009, 05:28 pm

THANK YOU!!!!

0 reply
Black Shadow2 10 wrote on October 1 2009, 08:48 pm

Nice tab!

guest
You may want to rate the tab now too:
select rating
Please do not post tabs as comments. Select "correction" instead!