Oops, an error
Loading. Please wait.

All To Myself Bass Tab

version 2
version 2

Whole song

Interactive

2,077 views 6 this week
no commentswrite comment
1 2 3 4 5
excellent!
x 4
add to favorites
launch autoscroll
font size
0
reset
guitar tuner
Tab Pro tools
  • play this tab
  • loop segment
  • change instrument
  • show fretboard
  • metronome
×
Best way to learn
"All To Myself"
Autoscroll
slow
fast
+/-
esc
set tempo
stop
Contributor
Song: All To Myself
Artist: Marianas Trench
Album: Masterpiece Theatre (2009)
Instrument: Bass
Difficulty: Novice / Intermediate
Tuning: Drop D

Tabbed by Jim L.


Verse {0:16}
 # Don't wanna be...
G|-----------------------------------------------------------------|
D|-----------------------------------------------------------------|
A|---------------------------------6-6-6-6-6-6-6-6-2-2-2-2-4-4-4-4-|
D|-4-4-4-4-4-4-4-4-4-4-4-4-4-4-4-4---------------------------------|
   1 + 2 + 3 + 4 + 1 + 2 + 3 + 4 + 1 + 2 + 3 + 4 + 1 + 2 + 3 + 4 + 

G|-----------------------------------------------------------------|
D|-------------------------------------------------4-4-4-4-4-4-4-4-|
A|---------------------------------2-2-2-2-4-4-4-4-----------------|
D|-4-4-4-4-4-4-4-4-4-4-4-4-4-4-4-4---------------------------------|
   1 + 2 + 3 + 4 + 1 + 2 + 3 + 4 + 1 + 2 + 3 + 4 + 1 + 2 + 3 + 4 + 

Pre-Chorus {0:31}
 # Please just follow me...
G|-----------------------------------------------------------------|
D|-----------------------------------------------------------------|
A|---------------------------------6---6---6---6---4---4---4---4---|
D|-4---4---4---4---4---4---4---4-----------------------------------|
   1 + 2 + 3 + 4 + 1 + 2 + 3 + 4 + 1 + 2 + 3 + 4 + 1 + 2 + 3 + 4 + 

G|-----------------------------------------------------------------|
D|-----------------------------------------------------------------|
A|---------------------------------4---4---4---4---2---2---2---2---|
D|-4---4---4---4---4---4---4---4-----------------------------------|
   1 + 2 + 3 + 4 + 1 + 2 + 3 + 4 + 1 + 2 + 3 + 4 + 1 + 2 + 3 + 4 + 

Chorus {0:46}
 # Please just follow me...
G|-----------------------------------------------------------------|
D|-----------------------------------------------------------------|
A|---------------------------------6-6-6-6-6-6-6-6-4-4-4-4-4-4-4-4-|
D|-4-4-4-4-4-4-4-4-4-4-4-4-4-4-4-4---------------------------------|
   1 + 2 + 3 + 4 + 1 + 2 + 3 + 4 + 1 + 2 + 3 + 4 + 1 + 2 + 3 + 4 + 

G|-----------------------------------------------------------------|
D|-----------------------------------------------------------------|
A|---------------------------------4-4-4-4-4-4-4-4-2-2-2-2-2-2-2---|
D|-4-4-4-4-4-4-4-4-4-4-4-4-4-4-4-4---------------------------------|
   1 + 2 + 3 + 4 + 1 + 2 + 3 + 4 + 1 + 2 + 3 + 4 + 1 + 2 + 3 + 4 + 

Verse {1:05}
 # Under the gun...
G|-----------------------------------------------------------------|
D|-----------------------------------------------------------------|
A|-----------------------------4/--6-6-6---6---6---2-2-2---4-4-4---|
D|-----------------------------------------------------------------|
   1 + 2 + 3 + 4 + 1 + 2 + 3 + 4 + 1 + 2 + 3 + 4 + 1 + 2 + 3 + 4 +

G|-----------------------------------------------------------------|
D|-----------------------------------------------------------------|
A|---------------------------------6-6-6---6---6---2-2-2---2-2-4---|
D|-4-4-4---4---4---4-4-4---4---4-----------------------------------|
   1 + 2 + 3 + 4 + 1 + 2 + 3 + 4 + 1 + 2 + 3 + 4 + 1 + 2 + 3 + 4 + 

G|-----------------------------------------------------------------|
D|-----------------------------------------------------------------|
A|---------------------------------6-6-6-6-6-6-6-6-2-2-2-2-4-4-4-4-|
D|-4-4-4-4-4-4-4-4-4-4-4-4-4-4-4-4---------------------------------|
   1 + 2 + 3 + 4 + 1 + 2 + 3 + 4 + 1 + 2 + 3 + 4 + 1 + 2 + 3 + 4 + 

G|-----------------------------------------------------------------|
D|-------------------------------------------------4-4-4-4-4-4-4-4-|
A|---------------------------------2-2-2-2-4-4-4-4-----------------|
D|-4-4-4-4-4-4-4-4-4-4-4-4-4-4-4-4---------------------------------|
   1 + 2 + 3 + 4 + 1 + 2 + 3 + 4 + 1 + 2 + 3 + 4 + 1 + 2 + 3 + 4 + 

Pre-Chorus {1:32}
 # Please just follow me...
G|-----------------------------------------------------------------|
D|-----------------------------------------------------------------|
A|---------------------------------6---6---6---6---4---4---4---4---|
D|-4---4---4---4---4---4---4---4-----------------------------------|
   1 + 2 + 3 + 4 + 1 + 2 + 3 + 4 + 1 + 2 + 3 + 4 + 1 + 2 + 3 + 4 + 

G|-----------------------------------------------------------------|
D|-----------------------------------------------------------------|
A|---------------------------------4---4---4---4---2---2---2---2---|
D|-4---4---4---4---4---4---4---4-----------------------------------|
   1 + 2 + 3 + 4 + 1 + 2 + 3 + 4 + 1 + 2 + 3 + 4 + 1 + 2 + 3 + 4 + 

Chorus {1:47}
 # Please just follow me...
G|-----------------------------------------------------------------|
D|-----------------------------------------------------------------|
A|---------------------------------6-6-6-6-6-6-6-6-4-4-4-4-4-4-4-4-|
D|-4-4-4-4-4-4-4-4-4-4-4-4-4-4-4-4---------------------------------|
   1 + 2 + 3 + 4 + 1 + 2 + 3 + 4 + 1 + 2 + 3 + 4 + 1 + 2 + 3 + 4 + 

G|-----------------------------------------------------------------|
D|-----------------------------------------------------------------|
A|---------------------------------4-4-4-4-4-4-4-4-2-2-2-2-2-2-2---|
D|-4-4-4-4-4-4-4-4-4-4-4-4-4-4-4-4---------------------------------|
   1 + 2 + 3 + 4 + 1 + 2 + 3 + 4 + 1 + 2 + 3 + 4 + 1 + 2 + 3 + 4 + 

Bridge {2:03}
 # Ah ah, ah ah...
G|-----------------------------------------------------------------|
D|-----------------------------------------------------------------|
A|-----------------------------1-------------------------------1---|
D|-4-4-------4-4---------4-4-------4-4-------4-4---------4-4-------|
   1 + 2 + 3 + 4 + 1 + 2 + 3 + 4 + 1 + 2 + 3 + 4 + 1 + 2 + 3 + 4 + 

G|-----------------------------------------------------------------|
D|-----------------------------------------------------------------|
A|-----------------------------1-------------------------------1---|
D|-4-4---------4-4---------4-4-----4-4---------4-4---------4-4-----|
   1 + 2 + 3 + 4 + 1 + 2 + 3 + 4 + 1 + 2 + 3 + 4 + 1 + 2 + 3 + 4 + 

Break {2:18}
 # Please just follow me...
G|-----------------------------------------------------------------|
D|-----------------------------------------------------------------|
A|-----------------------------------------------------------------|
D|-----------------------------------------------------------------|
   1 + 2 + 3 + 4 + 1 + 2 + 3 + 4 + 1 + 2 + 3 + 4 + 1 + 2 + 3 + 4 + 

G|-----------------------------------------------------------------|
D|-----------------------------------------------------------------|
A|-----------------------------------------------------------------|
D|-----------------------------------------------------------------|
   1 + 2 + 3 + 4 + 1 + 2 + 3 + 4 + 1 + 2 + 3 + 4 + 1 + 2 + 3 + 4 + 

Chorus 2 {2:33}
 # Please just follow me...
G|-----------------------------------------------------------------|
D|-----------------------------------------------------------------|
A|-6-6-6-6-6-6-6-6-6-6-6-6-6-6-6-6-4-4-4-4-4-4-4-4-4-4-4-4-4-4-4-4-|
D|-----------------------------------------------------------------|
   1 + 2 + 3 + 4 + 1 + 2 + 3 + 4 + 1 + 2 + 3 + 4 + 1 + 2 + 3 + 4 + 

G|-----------------------------------------------------------------|
D|---------------/-8-8-8-8-8-8-8-8--------------------/8-8-8-8-8---|
A|-2-2-2-2-2-2-2-------------------2-2-2-2-2-2-2-2-2-2-------------|
D|-----------------------------------------------------------------|
   1 + 2 + 3 + 4 + 1 + 2 + 3 + 4 + 1 + 2 + 3 + 4 + 1 + 2 + 3 + 4 + 

Chorus {2:51}
 # Please just follow me...
G|-----------------------------------------------------------------|
D|-----------------------------------------------------------------|
A|---------------------------------6-6-6-6-6-6-6-6-4-4-4-4-4-4-4-4-|
D|-4-4-4-4-4-4-4-4-4-4-4-4-4-4-4-4---------------------------------|
   1 + 2 + 3 + 4 + 1 + 2 + 3 + 4 + 1 + 2 + 3 + 4 + 1 + 2 + 3 + 4 + 

G|-----------------------------------------------------------------|
D|-----------------------------------------------------------------|
A|---------------------------------4-4-4-4-4-4-4-4-2-2-2-2-2-2-2---|
D|-4-4-4-4-4-4-4-4-4-4-4-4-4-4-4-4---------------------------------|
   1 + 2 + 3 + 4 + 1 + 2 + 3 + 4 + 1 + 2 + 3 + 4 + 1 + 2 + 3 + 4 + 

Outro {3:06}
G|--------------------------------|
D|--------------------------------|
A|--------------------------------|
D|-4-4-------4-4---------4-4------|
   1 + 2 + 3 + 4 + 1 + 2 + 3 + 4 + 
comments
print report bad tab
I want to post or [tab]
guest
You may want to rate the tab now too:
select rating
Please do not post tabs as comments. Select "correction" instead!