Oops, an error
Loading. Please wait.

All To Myself Tab

version 3
version 3

Whole song

Interactive

17,297 views 12 this week
3 commentsread comments
1 2 3 4 5
accurate
x 11
add to favorites
launch autoscroll
font size
0
reset
how to read this tab
guitar tuner
Autoscroll
slow
fast
+/-
esc
set tempo
stop
Help us to improve Ultimate-Guitar.com Take our survey!
×
Author
-------------------------------------------------------------------------------
                             All to myself - Marianas Trench
-------------------------------------------------------------------------------

Tabbed by: Life2Ashes
Email: antoniomendozanovelo@live.ca

Tuning: Guitar 1: (Lead Guitar) : D-A-D-G-B-E - Drop D tuning.
        Guitar 2:(Rhythm Guitar): D-A-D-G-B-E - Drop D Tuning.



  Intro- "I don't patronize..." 00:01 

  Guitar 1:
e|----------------------------------------------------|
B|----------------------------------------------------|
G|----------------------------------------------------|
D|----------------------------------------------------|
A|----------------------------------------------------|
E|----------------------------------------------------|
 |Guitar 2:                                           |
e|----------------------------------------------------|
B|----------------------------------------------------|
G|--------------------------------------4--4----6--6--|
D|--4--4--------4--4--------1--1--------4--4----6--6--|
A|--4--4--------4--4--------1--1--------2--2----4--4--|
E|--4--4--------4--4--------1--1----------------------|

  Guitar 1:
e|----------------------------------------------------|
B|----------------------------------------------------|
G|----------------------------------------------------|
D|----------------------------------------------------|
A|----------------------------------------------------|
E|----------------------------------------------------|
 |Guitar 2:                                           |
e|----------------------------------------------------|
B|----------------------------------------------------|
G|--------------------------------------4--4----6--6--|
D|--4--4--------4--4--------1--1--------4--4----6--6--|
A|--4--4--------4--4--------1--1--------2--2----4--4--|
E|--4--4--------4--4--------1--1----------------------|


  Verse- "I don't wanna be..." 00:16

 Guitar 1:
e|----------------------------------------------------|
B|----------------------------------------------------|
G|----------------------------------------------------|
D|--4--4--4--4--4--4--4--4--4--4--4--4--4--4-4-4--4---|
A|--x--x--x--x--x--x--x--x--x--x--x--x--2--2-2-4--4---|
E|--4--4--4--4--4--4--4--4--1--1--1--1--x--x-x-x--x---|
 |Guitar 2:                                           |               
e|----------------------------------------------------|
B|----------------------------------------------------|
G|--------------------------------------4--4----6--6--|
D|--4--4--------4--4--------1--1--------4--4----6--6--|
A|--4--4--------4--4--------1--1--------2--2----4--4--|
E|--4--4--------4--4--------1--1----------------------|

  Guitar 1:
e|----------------------------------------------------|
B|----------------------------------------------------|
G|----------------------------------------------------|
D|--4--4---4--4---4--4---4--4---4--4---4~-------------|
A|--x--x---x--x---x--x---2--2---4--4---4~-------------|
E|--4--4---4--4---4--4---x--x---x--x---4~-------------|
 |Guitar 2:                                           |
e|----------------------------------------------------|
B|----------------------------------------------------|
G|-----------------------4--4---6--6------------------|
D|--4--4---4--4---4--4---4--4---6--6--4-4-4-4-4-4-4-4-|
A|--4--4---4--4---4--4---2--2---4--4--4-4-4-4-4-4-4-4-|
E|--4--4---4--4---4--4----------------4-4-4-4-4-4-4-4-|
                                        * * * * * *   

  Pre-Chorus- "Did you say.." 00:30

  Guitar 1:
e|----------------------------------------------------------------|
B|----------------------------------------------------------------|
G|----------------------------------8---8---8---8---6---6---6---6-|
D|--4---4---4---4---4---4---4---4---8---8---8---8---6---6---6---6-|
A|--4---4---4---4---4---4---4---4---6---6---6---6---4---4---4---4-|
E|--4---4---4---4---4---4---4---4---------------------------------|
 |Guitar 2:                                                       |
e|----------------------------------------------------------------|
B|----------------------------------------------------------------|
G|----------------------------------8---8---8---8-\-6---6---6---6-|
D|--4---4---4---4---4---4---4---4---8---8---8---8-\-6---6---6---6-|
A|--4---4---4---4---4---4---4---4---6---6---6---6-\-4---4---4---4-|
E|--4---4---4---4---4---4---4---4---------------------------------|
  
 Guitar 1:
e|----------------------------------------------------------------|
B|----------------------------------------------------------------|
G|----------------------------------6---6---6---6---4-4-4-4-4-4-4-|
D|--4---4---4---4---4---4---4---4---6---6---6---6---4-4-4-4-4-4-4-|
A|--4---4---4---4---4---4---4---4---4---4---4---4---2-2-2-2-2-2-2-|
E|--4---4---4---4---4---4---4---4---------------------------------|
 |Guitar 2:                                                       |
e|----------------------------------------------------------------|
B|----------------------------------------------------------------|
G|----------------------------------6---6---6---6-\-4-4-4-4-4-4-4-|
D|--4---4---4---4---4---4---4---4---6---6---6---6-\-4-4-4-4-4-4-4-|
A|--4---4---4---4---4---4---4---4---4---4---4---4-\-2-2-2-2-2-2-2-|
E|--4---4---4---4---4---4---4---4---------------------------------|


  Chorus: "Please just follow me.." 00:46

  Guitar 1:
e|----------------------------------------------------------------|
B|----------------------------------------------------------------|
G|--------------------------------8-8-8-8-8-8-8-8-6-6-6-6-6-6-6-6-|
D|--4-4-4-4-4-4-4-4-4-4-4-4-4-4-4-8-8-8-8-8-8-8-8-6-6-6-6-6-6-6-6-|
A|--4-4-4-4-4-4-4-4-4-4-4-4-4-4-4-6-6-6-6-6-6-6-6-4-4-4-4-4-4-4-4-|
E|--4-4-4-4-4-4-4-4-4-4-4-4-4-4-4---------------------------------|
 |Guitar 2:                                                       |
e|----------------------------------------------------------------|
B|----------------------------------------------------------------|
G|--------------------------------8-8-8-8-8-8-8-8-\-6-6-6-6-6-6-6-|
D|--4-4-4-4-4-4-4-4-4-4-4-4-4-4-4-8-8-8-8-8-8-8-8-\-6-6-6-6-6-6-6-|
A|--4-4-4-4-4-4-4-4-4-4-4-4-4-4-4-6-6-6-6-6-6-6-6-\-4-4-4-4-4-4-4-|
E|--4-4-4-4-4-4-4-4-4-4-4-4-4-4-4---------------------------------|

  Guitar 1:
e|----------------------------------------------------------------|
B|----------------------------------------------------------------|
G|--------------------------------6-6-6-6-6-6-6-6-4-4-4-4-4-4-4-4-|
D|--4-4-4-4-4-4-4-4-4-4-4-4-4-4-4-6-6-6-6-6-6-6-6-4-4-4-4-4-4-4-4-|
A|--4-4-4-4-4-4-4-4-4-4-4-4-4-4-4-4-4-4-4-4-4-4-4-2-2-2-2-2-2-2-2-|
E|--4-4-4-4-4-4-4-4-4-4-4-4-4-4-4---------------------------------|
 |Guitar 2:                                                       |
e|----------------------------------------------------------------|
B|----------------------------------------------------------------|
G|--------------------------------6-6-6-6-6-6-6-6-\-4-4-4-4-4-4-4-|
D|--4-4-4-4-4-4-4-4-4-4-4-4-4-4-4-6-6-6-6-6-6-6-6-\-4-4-4-4-4-4-4-|
A|--4-4-4-4-4-4-4-4-4-4-4-4-4-4-4-4-4-4-4-4-4-4-4-\-2-2-2-2-2-2-2-|
E|--4-4-4-4-4-4-4-4-4-4-4-4-4-4-4---------------------------------|


  Verse 2- "I'm under the gun..." 01:02

  Guitar 1:
e|-----------------------------------------------------------------|
B|-----------------------------------------------------------------|
G|-----------------------------------------------------------------|
D|-4-4-4--4--4--4--4--4--4--4--4--3-4--4--4--4--4--4--4--4-3-3-4-4-|
A|-x-x-x--x--x--x--x--x--x--x--x--x-x--x--x--x--x--x--x--x-x-x-x-x-|
E|-4-4-4--4--4--4--4--4--4--4--4--3-4--4--4--4--4--4--4--4-3-3-4-4-|
 |Guitar 2:                                                        |
e|-----------------------------------------------------------------|
B|-----------------------------------------------------------------|
G|-----------------------------------------------------------------|
D|-----------------------------------------------------------------|
A|-----------------------------------------------------------------|
E|-----------------------------------------------------------------|

  Guitar 1:
e|--------------------------------------------|
B|--------------------------------------------|
G|--------------------------------------------|
D|--4--4--4--4--4--4--4--4--4--4--4--4--4--4--|
A|--x--x--x--x--x--x--x--x--x--x--x--x--x--x--|
E|--4--4--4--4--4--4--4--4--4--4--4--4--4--4--|
 |Guitar 2:                                   |
e|--------------------------------------------|
B|--------------------------------------------|
G|--------------------------------------------|
D|--------------------------------------------|
A|--------------------------------------------|
E|--------------------------------------------|

  Guitar 1:
e|-------------------------------------------------------|
B|-------------------------------------------------------|
G|-------------------------------------------------------|
D|--4--4--4--4--4--4--4--4--4--4--4--4--4--4--4--4--4--4-|
A|--x--x--x--x--x--x--x--x--x--6--6--6--6--6--2--2--6--6-|
E|--4--4--4--4--4--4--4--4--4--x--x--x--x--x--x--x--x--x-|
 |Guitar 2:                                              |
e|-------------------------------------------------------|
B|-------------------------------------------------------|
G|-----------------------------8--8---------4--4---6--6--|
D|--4-4-4---------4--4---------8--8---------4--4---6--6--|
A|--4-4-4---------4--4---------6--6---------2--2---4--4--|
E|--4-4-4---------4--4-----------------------------------|

  Guitar 1:
e|-----------------------------------------------------|
B|-----------------------------------------------------|
G|-----------------------------------------------------|
D|--4--4---4--4---4--4---4--4---4--4---4~--------------|
A|--x--x---x--x---x--x---2--2---4--4---4~--------------|
E|--4--4---4--4---4--4---x--x---x--x---4~--------------|
 |Guitar 2:                                            |
e|-----------------------------------------------------|
B|-----------------------------------------------------|
G|-----------------------4--4---6--6-------------------|
D|--4--4---4--4---4--4---4--4---6--6---4-4-4-4-4-4-4-4-|
A|--4--4---4--4---4--4---2--2---4--4---4-4-4-4-4-4-4-4-|
E|--4--4---4--4---4--4-----------------4-4-4-4-4-4-4-4-|
                                         * * * * * *   

  Pre-Chorus- "Did you say.." 01:31

  Guitar 1:
e|----------------------------------------------------------------|
B|----------------------------------------------------------------|
G|----------------------------------8---8---8---8---6---6---6---6-|
D|--4---4---4---4---4---4---4---4---8---8---8---8---6---6---6---6-|
A|--4---4---4---4---4---4---4---4---6---6---6---6---4---4---4---4-|
E|--4---4---4---4---4---4---4---4---------------------------------|
 |Guitar 2:                                                       |
e|----------------------------------------------------------------|
B|----------------------------------------------------------------|
G|----------------------------------8---8---8---8-\-6---6---6---6-|
D|--4---4---4---4---4---4---4---4---8---8---8---8-\-6---6---6---6-|
A|--4---4---4---4---4---4---4---4---6---6---6---6-\-4---4---4---4-|
E|--4---4---4---4---4---4---4---4---------------------------------|

 Guitar 1:
e|----------------------------------------------------------------|
B|----------------------------------------------------------------|
G|----------------------------------6---6---6---6---4-4-4-4-4-4-4-|
D|--4---4---4---4---4---4---4---4---6---6---6---6---4-4-4-4-4-4-4-|
A|--4---4---4---4---4---4---4---4---4---4---4---4---2-2-2-2-2-2-2-|
E|--4---4---4---4---4---4---4---4---------------------------------|
 |Guitar 2:                                                       |
e|----------------------------------------------------------------|
B|----------------------------------------------------------------|
G|----------------------------------6---6---6---6-\-4-4-4-4-4-4-4-|
D|--4---4---4---4---4---4---4---4---6---6---6---6-\-4-4-4-4-4-4-4-|
A|--4---4---4---4---4---4---4---4---4---4---4---4-\-2-2-2-2-2-2-2-|
E|--4---4---4---4---4---4---4---4---------------------------------|


  Chorus: "Please just follow me.." 01:47

  Guitar 1:
e|----------------------------------------------------------------|
B|----------------------------------------------------------------|
G|--------------------------------8-8-8-8-8-8-8-8-6-6-6-6-6-6-6-6-|
D|--4-4-4-4-4-4-4-4-4-4-4-4-4-4-4-8-8-8-8-8-8-8-8-6-6-6-6-6-6-6-6-|
A|--4-4-4-4-4-4-4-4-4-4-4-4-4-4-4-6-6-6-6-6-6-6-6-4-4-4-4-4-4-4-4-|
E|--4-4-4-4-4-4-4-4-4-4-4-4-4-4-4---------------------------------|
 |Guitar 2:                                                       |
e|----------------------------------------------------------------|
B|----------------------------------------------------------------|
G|--------------------------------8-8-8-8-8-8-8-8-\-6-6-6-6-6-6-6-|
D|--4-4-4-4-4-4-4-4-4-4-4-4-4-4-4-8-8-8-8-8-8-8-8-\-6-6-6-6-6-6-6-|
A|--4-4-4-4-4-4-4-4-4-4-4-4-4-4-4-6-6-6-6-6-6-6-6-\-4-4-4-4-4-4-4-|
E|--4-4-4-4-4-4-4-4-4-4-4-4-4-4-4---------------------------------|

  Guitar 1:
e|----------------------------------------------------------------|
B|----------------------------------------------------------------|
G|--------------------------------6-6-6-6-6-6-6-6-4-4-4-4-4-4-4-4-|
D|--4-4-4-4-4-4-4-4-4-4-4-4-4-4-4-6-6-6-6-6-6-6-6-4-4-4-4-4-4-4-4-|
A|--4-4-4-4-4-4-4-4-4-4-4-4-4-4-4-4-4-4-4-4-4-4-4-2-2-2-2-2-2-2-2-|
E|--4-4-4-4-4-4-4-4-4-4-4-4-4-4-4---------------------------------|
 |Guitar 2:                                                       |
e|----------------------------------------------------------------|
B|----------------------------------------------------------------|
G|--------------------------------6-6-6-6-6-6-6-6-\-4-4-4-4-4-4-4-|
D|--4-4-4-4-4-4-4-4-4-4-4-4-4-4-4-6-6-6-6-6-6-6-6-\-4-4-4-4-4-4-4-|
A|--4-4-4-4-4-4-4-4-4-4-4-4-4-4-4-4-4-4-4-4-4-4-4-\-2-2-2-2-2-2-2-|
E|--4-4-4-4-4-4-4-4-4-4-4-4-4-4-4---------------------------------|


  Solo- 02:02

  Guitar 1:
e|-------------------------------|
B|-------------------------------|
G|-------------------------------|
D|-------------------------------|
A|-------------------------------|
E|-------------------------------|
 |Guitar 2:                      |                                           
e|-------------------------------|
B|-------------------------------|
G|----------------------------4--|
D|--4--4------4--4------4--4--4--|
A|--4--4------4--4------4--4--2--|
E|--4--4------4--4------4--4-----|

  Guitar 1:
e|---------------------------------14----------------14-------------|
B|-------------------------------------11b12r11~---------11b12r11~~-|
G|-------------------------/11-11-----------------11----------------|
D|------------------------------------------------------------------|
A|------------------------------------------------------------------|
E|------------------------------------------------------------------|
 |Guitar 2:                                                         |
e|------------------------------------------------------------------|
B|------------------------------------------------------------------|
G|---------------------4--------------------------------------------|
D|-4--4------4--4------4--4-4-4---4--4------4--4------4--4------4--4|
A|-4--4------4--4------2--4-4-4---4--4------4--4------4--4------4--4|
E|-4--4------4--4---------4-4-4---4--4------4--4------4--4------4--4|

  Guitar 1:
e|-----14---------------14--18b19r18--14\--|
B|---------11b12r12------------------------|
G|-11----------------11--------------------|
D|-----------------------------------------|
A|-----------------------------------------|
E|-----------------------------------------|
 |Guitar 2:                                |
e|-----------------------------------------|
B|-----------------------------------------|
G|------------------------------4----------|
D|--4-------4--4------4--4------4--4-4-4\--|
A|--2-------4--4------4--4------2--4-4-4\--|
E|----------4--4------4--4---------4-4-4\--|


  Bridge: "Please just follow me.." 02:18

  Guitar 1:
e|-----------------------------------------------|
B|-----------------------------------------------|
G|-----------------------------------------------|
D|-----------------------------------------------|
A|-----------------------------------------------|
E|-----------------------------------------------|
 |Guitar 2:                                      |
e|-----------------------------------------------|
B|-----------------------------------------------|
G|---------------------------8--8---8--8---6--6--|
D|--4--4---4--4---4--4---4---8--8---8--8---6--6--|
A|--4--4---4--4---4--4---4---6--6---6--6---4--4--|
E|--4--4---4--4---4--4---4-----------------------|
    *  *   *  *   *  *   *   *  *   *  *   *  * 

  Guitar 1:
e|--------------------------------------|
B|--------------------------------------|
G|--------------------------------------|
D|--------------------------------------|
A|--------------------------------------|
E|--------------------------------------|
 |Guitar 2:                             |
e|--------------------------------------|
B|--------------------------------------|
G|---------------------------6--6---6\--|
D|--4--4---4--4---4--4---4---6--6---6\--|
A|--4--4---4--4---4--4---4---4--4---4\--|
E|--4--4---4--4---4--4---4--------------|
    *  *   *  *   *  *   *   *  *   *

  Guitar 1:
e|----------------------------------|
B|----------------------------------|
G|--8-8-8-8-8-8-8-8-8-8-8-8-8-8-8-8-|
D|--8-8-8-8-8-8-8-8-8-8-8-8-8-8-8-8-|
A|--6-6-6-6-6-6-6-6-6-6-6-6-6-6-6-6-|
E|----------------------------------|
 |Guitar 2:                         |
e|----------------------------------|
B|----------------------------------|
G|--8-8-8-8-8-8-8-8-8-8-8-8-8-8-8-8-|
D|--8-8-8-8-8-8-8-8-8-8-8-8-8-8-8-8-|
A|--6-6-6-6-6-6-6-6-6-6-6-6-6-6-6-6-|
E|----------------------------------|

  Guitar 1:
E|----------------------------------|
e|----------------------------------|
B|----------------------------------|
G|--6-6-6-6-6-6-6-6-6-6-6-6-6-6-6-6-|
D|--6-6-6-6-6-6-6-6-6-6-6-6-6-6-6-6-|
A|--4-4-4-4-4-4-4-4-4-4-4-4-4-4-4-4-|
E|----------------------------------|
 |GUitar 2:                         |
E|----------------------------------|
e|----------------------------------|
B|----------------------------------|
G|--6-6-6-6-6-6-6-6-6-6-6-6-6-6-6-6-|
D|--6-6-6-6-6-6-6-6-6-6-6-6-6-6-6-6-|
A|--4-4-4-4-4-4-4-4-4-4-4-4-4-4-4-4-|
E|----------------------------------|

  Guitar 1:
e|---------------------------| 
B|---------------------------| 
G|-4--4-4-4-4-3--3-3-3-3-3-3-| 
D|-4--4-4-4-4-3--3-3-3-3-3-3-| 
A|-2--2-2-2-2-1--1-1-1-1-1-1-| 
E|---------------------------|
 |Guitar 2:                  |
e|---------------------------| 
B|---------------------------| 
G|-4--4-4-4-4-3--3-3-3-3-3-3-| 
D|-4--4-4-4-4-3--3-3-3-3-3-3-| 
A|-2--2-2-2-2-1--1-1-1-1-1-1-| 
E|---------------------------|

  Guitar 1:
e|------------------------------------------|
B|------------------------------------------|
G|-----------------6-6-6-6-6-6-6-6-6-6-6-6-6|
D|-----------------6-6-6-6-6-6-6-6-6-6-6-6-6|
A|-----------------4-4-4-4-4-4-4-4-4-4-4-4-4|
E|------------------------------------------|
 |                 * * * * * * * * * *      |
 |Guitar 2:                                 |
e|------------------------------------------|
B|------------------------------------------|
G|-----------------6-6-6-6-6-6-6-6-6-6-6-6-6|
D|-----------------6-6-6-6-6-6-6-6-6-6-6-6-6|
A|-----------------4-4-4-4-4-4-4-4-4-4-4-4-4|
E|------------------------------------------|
                   * * * * * * * * * *      


  Chorus: "Did you say.." 02:47

  Guitar 1:
e|----------------------------------------------------------------|
B|----------------------------------------------------------------|
G|--------------------------------8-8-8-8-8-8-8-8-6-6-6-6-6-6-6-6-|
D|--4-4-4-4-4-4-4-4-4-4-4-4-4-4-4-8-8-8-8-8-8-8-8-6-6-6-6-6-6-6-6-|
A|--4-4-4-4-4-4-4-4-4-4-4-4-4-4-4-6-6-6-6-6-6-6-6-4-4-4-4-4-4-4-4-|
E|--4-4-4-4-4-4-4-4-4-4-4-4-4-4-4---------------------------------|
 |Guitar 2:                                                       |
e|----------------------------------------------------------------|
B|----------------------------------------------------------------|
G|--------------------------------8-8-8-8-8-8-8-8-\-6-6-6-6-6-6-6-|
D|--4-4-4-4-4-4-4-4-4-4-4-4-4-4-4-8-8-8-8-8-8-8-8-\-6-6-6-6-6-6-6-|
A|--4-4-4-4-4-4-4-4-4-4-4-4-4-4-4-6-6-6-6-6-6-6-6-\-4-4-4-4-4-4-4-|
E|--4-4-4-4-4-4-4-4-4-4-4-4-4-4-4---------------------------------|

  Guitar 1:
e|----------------------------------------------------------------|
B|----------------------------------------------------------------|
G|-------------------------------6-6-6-6-6-6-6-6-4-4-4-4-xxxxxxxx-|
D|-4-4-4-4-4-4-4-4-4-4-4-4-4-4-4-6-6-6-6-6-6-6-6-4-4-4-4-xxxxxxxx-|
A|-4-4-4-4-4-4-4-4-4-4-4-4-4-4-4-4-4-4-4-4-4-4-4-2-2-2-2-xxxxxxxx-|
E|-4-4-4-4-4-4-4-4-4-4-4-4-4-4-4----------------------------------|
 |Guitar 2:                                                       |
e|----------------------------------------------------------------|
B|----------------------------------------------------------------|
G|-------------------------------6-6-6-6-6-6-6-6-\-4-4-4-xxxxxxxx-|
D|-4-4-4-4-4-4-4-4-4-4-4-4-4-4-4-6-6-6-6-6-6-6-6-\-4-4-4-xxxxxxxx-|
A|-4-4-4-4-4-4-4-4-4-4-4-4-4-4-4-4-4-4-4-4-4-4-4-\-2-2-2-xxxxxxxx-|
E|-4-4-4-4-4-4-4-4-4-4-4-4-4-4-4----------------------------------|

  Outro: "Na-na.." 03:05
 
  Guitar 1:
e|----------------------------|
B|----------------------------|
G|----------------------------|
D|--4--4------4--4------4--4--|
A|--4--4------4--4------4--4--|
E|--4--4------4--4------4--4--|
 |Guitar 2:                   |
e|----------------------------|
B|----------------------------|
G|----------------------------|
D|--4--4------4--4------4--4--|
A|--4--4------4--4------4--4--|
E|--4--4------4--4------4--4--|

You might need these to help you understand the symbols.

| /  Slide up
| \  Slide down
| h  Hammer-on
| p  Pull-off
| ~  Vibrato
| +  Harmonic
| X  Mute note
| *  Palm mute
| b  Bend note
| r  Release bend

                Please rate and leave a comment! Any questions e-mail me!
 

Lyrics:
-------
I don't patronize
I realize I'm losing and this is my real life
I'm half asleep
And I am wide awake this habit 
is always so hard to break
I don't want to be the bad guy
I've been blaming myself and I think you know why
I'm killing time (I'm killing time), 
and time's killing you every way that I do

Did you say
Please just follow me
I thought you wanted me
Cause I want you all to myself
I can try and suck it up
I just can't suck it up
Make me feel like someone else
Please just follow me
I thought you wanted me
Cause I want you all to myself
I can try and suck it up
I just can't suck it up
Make me feel like someone else

I'm under the gun
Feel like the only one 
I just can't decide what I'm running from
This isn't what I wanted but
I can't keep my filthy fucking mouth shut
It's not enough (It's not enough)
 it's never enough
And I wish I could breath without
 it getting stuck
Can't focus it (Can't focus it) 
but I try it over and over again

Did you say
Please just follow me
I thought you wanted me
Cause I want you all to myself
I can try and suck it up
I just can't suck it up
Make me feel like someone else
Please just follow me
I thought you wanted me
Cause I want you all to myself
I can try and suck it up
I just can't suck it up
Make me feel like someone else

Na-na na-na na
Na-na na-na na-na
Na-na na-na na
Na-na na-na na-na

(Please just follow me
I thought you wanted me
Cause I want you all to myself
I can try and suck it up
I just can't suck it up
Make me feel like...)

Did you say
Please just follow me
I thought you wanted me
Cause I can't stay
with someone else
I'll try and suck it up
I just keep f*%king up
I want you all to myself

Did you say
Please just follow me
I thought you wanted me
Cause I want you all to myself
I can try and suck it up
I just can't suck it up
Make me feel like someone else

Na-na na-na na!

===============================================================================
Suggest correction
What's this?
You can suggest a correction to this tab. Community and Mods will review your correction and vote to approve or reject it.
comments
print report bad tab
3 comments total.
0 reply
Apple π 11 wrote on May 28 2009, 01:23 am

nice!

0 reply
MaeganMayhem 96 wrote on June 2 2009, 03:46 pm

thaaank you.
this one seems right.
havent played it yet, but it looks waay more accurate than the other two.

0 reply
ljubavjelijepa 169 wrote on July 31 2009, 11:53 pm

good tab

guest
You may want to rate the tab now too:
select rating
Please do not post tabs as comments. Select "correction" instead!