Oops, an error
Loading. Please wait.

All To Myself Tab

version 4
version 4

Whole song

Interactive

2,506 views 1 this week
no commentswrite comment
1 2 3 4 5
please rate
add to favorites
launch autoscroll
font size
0
reset
how to read this tab
guitar tuner
Autoscroll
slow
fast
+/-
esc
set tempo
stop
Help us to improve Ultimate-Guitar.com Take our survey!
×
Contributor
Marianas Trench - All To Myself

Standard Tuning, half-step down (low to high D# G# C# F# A# D#)

Notes: 1) Chorus 4 is probably the least accurate part of this tab. I don’t have
          the time, energy, or perhaps the ear to pick out the part note-for-note,
          but I know for sure that the harmonic progression is correct.
       2) In double-tracked sections I labelled each part separately. Otherwise,
          I can pick out only one guitar and put no label.
       3) Feel free to reduce major/minor chords to “power” chords by dropping
          the highest note. I personally think the major/minor chords sound better.
       4) Cut and paste this file into your favourite word processing application
          and set the whole text to 10- or 11-point MS Gothic for easy viewing.

** Verse 1 ** 

  Guitar 1                                                              (3x)
||------------------|-----------------|-----------------|-----------------||
||------------------|-----------------|-----------------|-5-5-----7-7-----||
||*-4-4-------------|-4-4-------------|-0-0-------------|-5-5-----7-7----*||
||*-5-5-------------|-5-5-------------|-2-2-------------|-5-5-----7-7----*||
||--5-5-------------|-5-5-------------|-2-2-------------|-3-3-----5-5-----||
||--3-3-------------|-3-3-------------|-0-0-------------|-----------------||
|
| Guitar 2 (3rd time only)
||------------------|-----------------|-----------------|-----------------||
||--12--12--12--12--|-12--12--12--12--|-12--12--12--12--|-12--12--12--12--||
||--12--12--12--12--|-12--12--12--12--|-12--12--12--12--|-12--12--12--12--||
||--12--12--12--12--|-12--12--12--12--|-12--12--12--12--|-12--12--12--12--||
||--10--10--10--10--|-10--10--10--10--|-10--10--10--10--|-10--10--10--10--||
||------------------|-----------------|-----------------|-----------------||

  Guitar 1
|-----------------|-----------------|-----------------|------------------|
|-----------------|-----------------|-5-5-----7-7-----|------------------|
|-4-4-----4-4-----|-4-4-----4-4-----|-5-5-----7-7-----|-4-4-4-4-4-4-4-4--|
|-5-5-----5-5-----|-5-5-----5-5-----|-5-5-----7-7-----|-5-5-5-5-5-5-5-5--|
|-5-5-----5-5-----|-5-5-----5-5-----|-3-3-----5-5-----|-5-5-5-5-5-5-5-5--|
|-3-3-----3-3-----|-3-3-----3-3-----|-----------------|-3-3-3-3-3-3-3-3--|
|
| Guitar 2
|-----------------|-----------------|-----------------|------------------|
|-12--12--12--12--|-12--12--12--12--|-12--12--12--12--|-12--12--12--12---|
|-12--12--12--12--|-12--12--12--12--|-12--12--12--12--|-12--12--12--12---|
|-12--12--12--12--|-12--12--12--12--|-12--12--12--12--|-12--12--12--12---|
|-10--10--10--10--|-10--10--10--10--|-10--10--10--10--|-10--10--10--10---|
|-----------------|-----------------|-----------------|------------------|

** Chorus 1 - 00:30 (play twice, quarter-notes 1st time, eighth-notes 2nd time) **
                        ______________________ __________
                        1.                    |   2.
||----------|----------|----------|----------||----------|----------|
||----------|----------|-8-8-8-8--|-7-7-7-7--||-7-7-7-7--|-5-5-5-5--|
||*-4-4-4-4-|-4-4-4-4--|-9-9-9-9--|-7-7-7-7-*||-7-7-7-7--|-5-5-5-5--|
||*-5-5-5-5-|-5-5-5-5--|-9-9-9-9--|-7-7-7-7-*||-7-7-7-7--|-5-5-5-5--|
||--5-5-5-5-|-5-5-5-5--|-7-7-7-7--|-5-5-5-5--||-5-5-5-5--|-3-3-3-3--|
||--3-3-3-3-|-3-3-3-3--|----------|----------||----------|----------|

** Verse 2 - 01:01 **

Repeat entire Verse 1 figure except that Guitar 1 only enters on the the 3rd time
and Guitar 2 plays alone the first two times as follows.

  Guitar 2
----||-------------------|----------------|----------------|-----------------||
----||------------12--12-|-12--12--12--12-|-12--12--12--12-|-12--12--12--12--||
-12-||*-11h12-12--12--12-|-12--12--12--12-|-12--12--12--12-|-12--12--12--12-*||
-12-||*-12----12--12--12-|-12--12--12--12-|-12--12--12--12-|-12--12--12--12-*||
-10-||--------10--10--10-|-10--10--10--10-|-10--10--10--10-|-10--10--10--10--||
----||-------------------|----------------|----------------|-----------------||

** Chorus 2 - 01:31 (Play exactly like Chorus 1) **

** Bridge - 02:02 **

    Guitar 2 - second time ONLY (Solo - 02:10)
---|-----15------------|--------15---------------|
---|-------------------|-------------------------|
---|---------16b17r16--|-(16)--------16b17r16----|
-5/|-17----------------|-----17---------------17-|
---|-------------------|-------------------------|
---|-------------------|-------------------------|
   |
   |Guitar 1 - play twice
   |-------------------|-------------------------|
   |-------------------|-------------------5-----|
   |-4-4-----------4-4-|-------------4-4---5-----|
   |-5-5-----------5-5-|-------------5-5---5-----|
   |-5-5-----------5-5-|-------------5-5---3-----|
   |-3-3-----------3-3-|-------------3-3---------|

-----15-------------|-------15---19b20r19-15\-|
--------------------|---------------------15\-|
---------16b17r16---|(16)---------------------|
-(17)---------------|----17-------------------|
--------------------|-------------------------|
--------------------|-------------------------|

--------------------|-------------------------|
--------------------|---------------------5---|
-4-4-----------4-4--|------------4-4------5---|
-5-5-----------5-5--|------------5-5------5---|
-5-5-----------5-5--|------------5-5------3---|
-3-3-----------3-3--|------------3-3----------|

** Chorus 3 - 02:16 (leave one bar rest at the end) **
                                    _______________________________ ___________
                                    1.                              |   2.
||-----------------|----------------|------------|-----------------||------------|
||--12-12---12-12--|-12-12---12-12--|-8-8---8-8--|-7-7---7-7-7-12--||-7-7---7-7--|
||*-12-12---12-12--|-12-12---12-12--|-9-9---9-9--|-7-7---7-7-7-12-*||-7-7---7-7--|
||*-12-12---12-12--|-12-12---12-12--|-9-9---9-9--|-7-7---7-7-7-12-*||-7-7---7-7--|
||--10-10---10-10--|-10-10---10-10--|-7-7---7-7--|-5-5---5-5-5-10--||-5-5---5-5--|
||-----------------|----------------|------------|-----------------||------------|

** Chorus 4 - 02:33 ***

    Em                          Dsus4                     D
||---------------------------||-------------------------|-------------------------|
||--12-12-12-12-12-12-12-12--||-10-10-10-10-10-10-10-10-|-10-10-10-10-10-10-10-10-|
||*-12-12-12-12-12-12-12-12-*||-12-12-12-12-12-12-12-12-|-11-11-11-11-11-11-11-11-|
||*-14-14-14-14-14-14-14-14-*||-12-12-12-12-12-12-12-12-|-12-12-12-12-12-12-12-12-|
||---------------------------||-------------------------|-------------------------|
||---------------------------||-------------------------|-------------------------|

 C                         G                                    C
-------------------------|-------------------------|----------|-----------------|
-13-13-13-13-13-13-13-13-|-12-12-12-12-12-12-12-12-|----2-----|-5-5-5-5-5-------|
-12-12-12-12-12-12-12-12-|-12-12-12-12-12-12-12-12-|---bars---|-5-5-5-5-5-------|
-14-14-14-14-14-14-14-14-|-12-12-12-12-12-12-12-12-|---rest---|-5-5-5-5-5-------|
-------------------------|-------------------------|----------|-3-3-3-3-3-------|
-------------------------|-------------------------|----------|-----------------|

** Chorus 5 - 02:49 (play once only, eighth-note strumming) **

** Coda - 03:06 **

-------------------|--------------------|
-------------------|--------------------|
-4-4-----------4-4-|---------4-4--------|
-5-5-----------5-5-|---------5-5--------|
-5-5-----------5-5-|---------5-5--------|
-3-3-----------3-3-|---------3-3--------|
Suggest correction new What's this?
You can suggest a correction to this tab. Community and Mods will review your correction and vote to approve or reject it.
comments
We did not receive enough feedback on this tab! Please rate:
print report bad tab
1 2 3 4 5
I want to post or [tab]
guest
You may want to rate the tab now too:
select rating
Please do not post tabs as comments. Select "correction" instead!