Oops, an error
Loading. Please wait.

All To Myself Tab

version 5
version 5

Whole song

Interactive

619 views 1 this week
no commentswrite comment
1 2 3 4 5
please rate
add to favorites
launch autoscroll
font size
0
reset
how to read this tab
guitar tuner
Tab Pro tools
  • play this tab
  • loop segment
  • change instrument
  • show fretboard
  • metronome
×
Best way to learn
"All To Myself"
Autoscroll
slow
fast
+/-
esc
set tempo
stop
Contributor
Difficulty
novice
Band: Marianas Trench
Song: All To Myself
Album: Masterpiece Theatre

Guitar 1 - Lead (Matt Webb)
Guitar 2 - Rhythm (Josh Ramsay)

Verse 1
Guitar 2
E|-------------------------|
B|-------------------------|
G|-33---33---77---66--1010-|
D|-44---44---88---99--1111-| (3x)
A|-44---44---88---99--1111-|
E|-22---22---66---77---9-9-|

E|---------------------------|
B|---------------------------|
G|-33-33-33-33-77-66-1010-3~-|
D|-44-44-44-44-88-99-1111-4~-|
A|-44-44-44-44-88-99-1111-4~-|
E|-22-22-22-22-66-77--9-9-2~-|

Guitar 1 (after guitar 2 does progression twice)
E|--2--2--2--2--2--2--2--2--6--6--6--6--7--7--7--7---|
B|--2--2--2--2--2--2--2--2--6--6--6--6--7--7--7--7---|
G|--3--3--3--3--3--3--3--3--6--6--6--6--8--8--8--8---|
D|--4--4--4--4--4--4--4--4--8--8--8--8--9--9--9--9---|
A|---------------------------------------------------|
E|---------------------------------------------------|

E|--2--2--2--2--2--2--2--2--7--7--9--9--2--2--2--2----|
B|--2--2--2--2--2--2--2--2--7--7--9--9--2--2--2--2----|
G|--3--3--3--3--3--3--3--3--8--8--10-10-3--3--3--3----|
D|--4--4--4--4--4--4--4--4--9--9--11-11-4--4--4--4----|
A|----------------------------------------------------|
E|----------------------------------------------------|

Pre-chorus
Both guitars
Did you say please just…      I want you…   all to myself…
E|-----------------------------------------------------------|
B|-----------------------------------------------------------|
G|-3—-3—-3--3--3--3--3--3--3--5—-5--5--5--6--6--6—-6—-10—-10-|
D|-4—-4—-4--4--4--4--4--4--4--8--8--8--8—-9--9--9—-9—-11—-11-|
A|-4—-4—-4--4--4--4--4--4--4--8--8--8--8—-9--9--9--9—-11—-11-|
E|-2—-2—-2--2--2--2--2--2--2--6--6--6--6—-7--7--7--7---9---9-|

   I can try…                 Make me…    Like someone else…
E|-----------------------------------------------------------|
B|-----------------------------------------------------------|
G|-3—-3—-3--3--3--3--3--3--3--5—-5--5--5--6--6--6—-6—-10—-10-|
D|-4—-4—-4--4--4--4--4--4--4--8--8--8--8—-9--9--9—-9—-11—-11-|
A|-4—-4—-4--4--4--4--4--4--4--8--8--8--8—-9--9--9--9—-11—-11-|
E|-2—-2—-2--2--2--2--2--2--2--6--6--6--6—-7--7--7--7---9---9-|

Chorus
Both guitars         I want..all to myself
E|-----------------------------------------|
B|-----------------------------------------|
G|-3-3-3-3-3-3-3-3-3-5-5-5-5-6-6-6-6-10-10-|
D|-4-4-4-4-4-4-4-4-4-8-8-8-8-9-9-9-9-11-11-|
A|-4-4-4-4-4-4-4-4-4-8-8-8-8-9-9-9-9-11-11-|
E|-2-2-2-2-2-2-2-2-2-6-6-6-6-7-7-7-7--9--9-|

   I can try…        make me feel…
E|-----------------------------------------|
B|-----------------------------------------|
G|-3-3-3-3-3-3-3-3-3-5-5-5-5-6-6-6-6-10-10-|
D|-4-4-4-4-4-4-4-4-4-8-8-8-8-9-9-9-9-11-11-|
A|-4-4-4-4-4-4-4-4-4-8-8-8-8-9-9-9-9-11-11-|
E|-2-2-2-2-2-2-2-2-2-6-6-6-6-7-7-7-7--9--9-|

Verse 2
Guitar 1
E|---------------------|    |-----|--------------------|
B|---------------------|    |-----|--------------------|
G|-333---3-3-3-3-3-3-3-|    |-333-|-3-3-3-3-3-3-3------|
D|-444---4-4-4-4-4-4-4-|(2x)|-444-|-4-4-4-4-4-4-4-(2x)-| (2x)
A|-444---4-4-4-4-4-4-4-|    |-444-|-4-4-4-4-4-4-4------|
E|-222---2-2-2-2-2-2-2-|    |-222-|-2-2-2-2-2-2-2------|

Guitar 2
E|--------------------------|
B|--------------------------|
G|-33---33---77---66---1010-|
D|-44---44---88---99---1111-| (3x)
A|-44---44---88---99---1111-|
E|-22---22---66---77----9-9-|

E|---------------------------|
B|---------------------------|
G|-33-33-33-33-77-66-1010-3~-|
D|-44-44-44-44-88-99-1111-4~-|
A|-44-44-44-44-88-99-1111-4~-|
E|-22-22-22-22-66-77--9-9-2~-|

Back to Pre-chorus and chorus

Solo
Guitar 2
E|----------------------------------------------------------|
B|----------------------------------------------------------|
G|-33-33-3~33-33-33-3~33-33-33-3~33-33-33-3~33--------------|
D|-44-44-4~44-44-44-4~44-44-44-4~44-44-44-4~44--------------|
A|-44-44-4~44-44-44-4~44-44-44-4~44-44-44-4~44--------------|
E|-22-22-2~22-22-22-2~22-22-22-2~22-22-22-2~22--------------|

Guitar 1
E|-----------------------3-3/14----14----14----14---b1814~~-|
B|-----------------------------b11---b11---b11---b11--------|
G|----------------------------------------------------------|
D|----------------------------------------------------------|
A|----------------------------------------------------------|
E|----------------------------------------------------------|

Bridge
Guitar 1
E|-----------------------------------------------|
B|-----------------------------------------------|
G|-33-33-33-33-77-66-1010-3222-33-33-33-33-77-88-|
D|-44-44-44-44-88-99-1111-4444-44-44-44-44-88-99-|
A|-44-44-44-44-88-99-1111-4444-44-44-44-44-88-99-|
E|-22-22-22-22-66-77--9-9-2222-22-22-22-22-66-77-|

Chorus
Both guitars         I can try and…  I want you…
E|----------------------------------------------|
B|----------------------------------------------|
G|-3-3-3-3-3-3-3-3-3-5-5-5-5-5-5-5-5------------|
D|-4-4-4-4-4-4-4-4-4-8-8-8-8-8-8-8-8------------|
A|-4-4-4-4-4-4-4-4-4-8-8-8-8-8-8-8-8------------|
E|-2-2-2-2-2-2-2-2-2-6-6-6-6-6-6-6-6------------|

   Did you say…      I want… all to myself…
E|-----------------------------------------|
B|-----------------------------------------|
G|-3-3-3-3-3-3-3-3-3-5-5-5-5-6-6-6-6-10-10-|
D|-4-4-4-4-4-4-4-4-4-8-8-8-8-9-9-9-9-11-11-|
A|-4-4-4-4-4-4-4-4-4-8-8-8-8-9-9-9-9-11-11-|
E|-2-2-2-2-2-2-2-2-2-6-6-6-6-7-7-7-7--9--9-|

   I can try and…    I just… make me feel…
E|-----------------------------------------|
B|-----------------------------------------|
G|-3-3-3-3-3-3-3-3-3-5-5-5-5-6-6-6-6-10-10-|
D|-4-4-4-4-4-4-4-4-4-8-8-8-8-9-9-9-9-11-11-| (2x)
A|-4-4-4-4-4-4-4-4-4-8-8-8-8-9-9-9-9-11-11-|
E|-2-2-2-2-2-2-2-2-2-6-6-6-6-7-7-7-7--9--9-|

Outro
Both guitars
E|-----------|
B|-33-33-33~-|
D|-44-44-44~-|
A|-44-44-44~-|
E|-22-22-22~-|
comments
We did not receive enough feedback on this tab! Please rate:
print report bad tab
1 2 3 4 5
I want to post or [tab]
guest
You may want to rate the tab now too:
select rating
Please do not post tabs as comments. Select "correction" instead!