Oops, an error
Loading. Please wait.

Celebrity Status Bass Tab

version 1
version 1

Whole song

Interactive

5,551 views 1 this week
no commentswrite comment
1 2 3 4 5
accurate
x 4
add to favorites
launch autoscroll
font size
0
reset
guitar tuner
Autoscroll
slow
fast
+/-
esc
set tempo
stop
Help us to improve Ultimate-Guitar.com Take our survey!
×
Contributor
Marianas Trench
Celebrity Status
Masterpiece theatre


Bass enter with the vocals

G|-------------------------------------------------------------|
D|-------------------------------------------------------------|
A|-6-------76--------74-------74-6-----76-----74------7-44--66-|
E|--0----------------------------------------------------------|

Prechorus
G|---------------------------------------------|
D|---------------------------------------------|
A|-----44--22-00-22----44--14\0000000022222222-|
E|-00---------------00-------------------------|

Chorus

G|------------------------------------------------------------------|
D|------------------------------------------------------------------|
A|-7-7-7-7-7-7-7-7-6-6-6-6-0-0-0000-----------------2-2-2-2-0-0-0-0-|
E|----------------------------------0-0-0-0-0-0-0-0-----------------|

Verse 2
G|-------------------------------------------------------------|
D|-------------------------------------------------------------|
A|--------476--------74-------74-6-----76-----74------7-44--66-|
E|-------------------------------------------------------------|


Prechorus
G|---------------------------------------------|
D|---------------------------------------------|
A|-----44--22-00-22----44--14\0000000022222222-|
E|-00---------------00-------------------------|

Chorus

G|-------------------------------------------------------------------|
D|-------------------------------------------------------------------|
A|-7-7-7-7-7-7-7-7-6-6-6-6-0-0-0000-----------------2-2-2-2-0-0-0-0--|  (X2)
E|----------------------------------0-0-0-0-0-0-0-0------------------|


Bridge
Chorus

G|---------------|
D|---------------|
A|--7647-7647----|(X3)
E|-0----0----54--|

G|------------|
D|------------|
A|--6-6-6-----|
E|-0-0-0------|


Chorus

G|------------------------------------------------------------------|
D|------------------------------------------------------------------|
A|----------------6666666600000000----------------2222222200000000--|  (X2)
E|0000000000000000----------------0000000000000000------------------|

G|---------------|
D|---------------|
A|--7647-7647----|(X2)
E|-0----0----54--|
comments
print report bad tab
I want to post or [tab]
guest
You may want to rate the tab now too:
select rating
Please do not post tabs as comments. Select "correction" instead!