Oops, an error
Loading. Please wait.

Celebrity Status Chords

version 1
version 1

Whole song

Interactive

24,731 views 6 this week
4 commentsread comments
1 2 3 4 5
accurate
x 5
add to favorites
launch autoscroll
font size
0
reset
transpose
0
reset
display chords
guitar tuner
Tab Pro tools
  • play this tab
  • loop segment
  • change instrument
  • show fretboard
  • metronome
×
Best way to learn
"Celebrity Status"
Autoscroll
slow
fast
+/-
esc
set tempo
stop
Contributor
-------------------------------------------------------------------------------
                             CELEBRITY STATUS - Marianas Trench 
-------------------------------------------------------------------------------
Tabbed by: MaeganMayhem
Email:xo.turn.it.up.ox@hotmail.com

Tuning: Standard

intro and first verse:
e|---------------------------------------------------------------------------|
B|---------------------------------------------------------------------------|
G|---------------------------------------------------------------------------|
D|-9--9-9--9-9--9-6--9-------------------------------------------------------|
A|-7--7-6--6-7--7-4--6-------------------------------------------------------|
E|---------------------------------------------------------------------------|     [x3] 
   
pre-chorus:            
e|---------------------------------------------------------------------------|
B|---------------------------------------------------------------------------|
G|---------------------------------------------------------------------------|
D|-----66-44-22-44----66-2-2-222-4-4-444-------------------------------------|
A|-----44-22-00-22----44-0-0-000-2-2-222-------------------------------------|
E|--00-------------00--------------------------------------------------------|

chorus:
e|---------------------------------------------------------------------------|
B|---------------------------------------------------------------------------|
G|---------------------------------------------------------------------------|
D|--9-9-9-9-9-9-9-9-9-9-9-9-2-2-2222-------------------------2-2-2-2---------|
A|--7-7-7-7-7-7-7-7-6-6-6-6-0-0-0000-----------------2-2-2-2-0-0-0-0---------|
E|-----------------------------------0-0-0-0-0-0-0-0-0-0-0-0-----------------|

second verse:
e|---------------------------------------------------------------------------|
B|---------------------------------------------------------------------------|
G|---------------------------------------------------------------------------|
D|-9--9-9--9-9--9-6--9-------------------------------------------------------|
A|-7--7-6--6-7--7-4--6-------------------------------------------------------|
E|---------------------------------------------------------------------------|  [x2]

pre-chorus:            
e|---------------------------------------------------------------------------|
B|---------------------------------------------------------------------------|
G|---------------------------------------------------------------------------|
D|-----66-44-22-44----66-2-2-222-4-4-444-------------------------------------|
A|-----44-22-00-22----44-0-0-000-2-2-222-------------------------------------|
E|--00-------------00--------------------------------------------------------|
chorus:
e|---------------------------------------------------------------------------|
B|---------------------------------------------------------------------------|
G|---------------------------------------------------------------------------|
D|--9-9-9-9-9-9-9-9-9-9-9-9-2-2-2222-------------------------2-2-2-2---------|
A|--7-7-7-7-7-7-7-7-6-6-6-6-0-0-0000-----------------2-2-2-2-0-0-0-0---------|
E|-----------------------------------0-0-0-0-0-0-0-0-0-0-0-0-----------------|  [x2]


e|-x-x-xx-xx-xx-x-xx-xx-x-x-xx-xx-xx-x-xx-xx---------------------------------|
B|-x-x-xx-xx-xx-x-xx-xx-x-x-xx-xx-xx-x-xx-xx---------------------------------|
G|-x-x-xx-xx-xx-x-xx-xx-x-x-xx-xx-xx-x-xx-xx---------------------------------|
D|-x-x-xx-xx-xx-x-xx-xx-x-x-xx-xx-xx-x-xx-xx---------------------------------|
A|-x-x-xx-xx-xx-x-xx-xx-x-x-xx-xx-xx-x-xx-xx---------------------------------|
E|-x-x-xx-xx-xx-x-xx-xx-x-x-xx-xx-xx-x-xx-xx---------------------------------|

solo:
e|---------------------------------------------------------------------------|
B|---------------------------------------------------------------------------|
G|---------------------------------------------------------------------------|
D|---------------------------------------------------------------------------|
A|----764-7---764-7---------764-7---764-7-------764-7---764-7------6-6-6-6---|
E|--0-------0-------54--0---------0-------54--0-------0-------54--0-0-0-0----|

e|---------|--------|--------|--------|--------|--------|--------|-----------|
B|---------|--------|--------|--------|--------|--------|--------|-----------|
G|---------|--------|--------|--------|--------|--------|--------|-----------|
D|---------|--------|66666666|22222222|--------|--------|44444444|22222222---|
A|---------|--------|44444444|00000000|--------|--------|22222222|00000000---|
E|-00000000|00000000|--------|--------|00000000|00000000|--------|-----------|  [x2]

outro:
e|---------------------------------------------------------------------------|
B|---------------------------------------------------------------------------|
G|---------------------------------------------------------------------------|
D|---------------------------------------------------------------------------|
A|---764-7---764-7------764-7---764-7----------------------------------------|
E|-0-------0-------54-0-------0-------54\------------------------------------|



| /  slide up
| \  slide down
| H  hammer-on
| p  pull-off
| ~  vibrato
| +  harmonic
| x  Mute note
===============================================================================
comments
print report bad tab
4 comments total. Showing first comments.
+3 reply
Drazorback123 wrote on April 3 2009, 08:44 pm

isn't this a tab?

0 reply
.hilroy wrote on May 9 2009, 02:21 pm

agreed.
these aren't the chords.

0 reply
MaeganMayhem wrote on May 9 2009, 03:26 pm

it is a tab.
i clicked tab, but it says its chords.

I want to post or [tab]
guest
You may want to rate the tab now too:
select rating
Please do not post tabs as comments. Select "correction" instead!