Oops, an error
Loading. Please wait.

Celebrity Status Bass Tab

version 2
version 2

Whole song

Interactive

1,056 views 1 this week
no commentswrite comment
1 2 3 4 5
please rate
add to favorites
launch autoscroll
font size
0
reset
guitar tuner
Autoscroll
slow
fast
+/-
esc
set tempo
stop
Help us to improve Ultimate-Guitar.com Take our survey!
×
Author
Celebrity Status
Marianas Trench
Tabbed by: _adam.gray_


Intro (no bass)

Verse (bass starts at 0:11)
G|-----------------------------------------------------------------------|
D|-----------------------------------------------------------------------|
A|-67------7-------74-------70-----------7------7-------74-------70------|
E|----------7----------------------7-------------7----------------------7|

Prechorus
G|---------------------------------------------|
D|---------------------------------------------|
A|-----44--22-00-22----44--14\0000000022222222-|
E|-00---------------00-------------------------|

Chorus
G|------------------------------------------------------------------|
D|------------------------------------------------------------------|
A|-7-7-7-7-7-7-7-7-6-6-6-6-0-0-0000-----------------2-2-2-2-0-0-0-0-|
E|----------------------------------0-0-0-0-0-0-0-0-----------------|

Verse

Prechorus

Chorus (x2)

Bridge (bass enters at 2:23)
G|---------------------|
D|---------------------|
A|66677-66677----------|(X3)
E|------------54-------|

G|---------------------|
D|---------------------|
A|--6-6-6-6-14\2-------|
E|-0-0-0-0-------------|


2nd Chorus (x2)
G|------------------------------------------------------------------|
D|------------------------------------------------------------------|
A|77777777777777776666666600000000----------------2222222200000000--|
E|--------------------------------0000000000000000------------------|

Outro
G|---------------------------------------|
D|---------------------------------------|
A|66677-66677----66677-66677-------------|
E|------------54-------------54\0--------|


End.
Suggest correction
Give kudos to tab author, rate the tab!
1 2 3 4 5
comments
print report bad tab
guest
You may want to rate the tab now too:
select rating
Wanna post a correction for this tab? Suggest correction