Oops, an error
Loading. Please wait.

Cross My Heart Tab

version 1
version 1

Acoustic

Whole song

Interactive

59,680 views 33 this week
9 commentsread comments
1 2 3 4 5
x 9
add to favorites
launch autoscroll
font size
0
reset
how to read this tab
guitar tuner
×
Best way to learn
"Cross My Heart"
Autoscroll
slow
fast
+/-
esc
set tempo
stop
Standard Tuning

[Intro]
(guitar 1) (x4)
e|---2-----2-----2-|
B|-----3-----3-----|
G|-4-----4-----4---|
D|-----------------|
A|-----------------|
E|-----------------|

e|---2-----2-----2-|
B|-----3-----3-----|
G|-----------------|
D|-5-----5-----5---|
A|-----------------|
E|-----------------|

e|---0-----0-----0-|
B|-----3-----3-----|
G|-2-----2-----2---|
D|-----------------|
A|-----------------|
E|-----------------|

e|---0-----0-----0-|
B|-----3-----3-----|
G|-2-----2-----2---|
D|-----------------|
A|-----------------|
E|-----------------|

(guitar 2)
(Comes in on the third loop of guitar 1)
e|--------------------|
B|--------------------|
G|-9-/-11-\-9-\-7-/-9-|
D|-x-/-x--\-x-\-x-/-x-|
A|-7-/-9--\-7-\-5-/-7-|
E|--------------------|

[Verse]
(The verse is simply the chords Bm, G, D, and A.
One strum for each bar.)

(Guitar 1)
(So here's another day, I'll spend away from you...)
e|-2-------3--------2-------0-----|
B|-3-------3--------3-------2-----|
G|-4-------0--------2-------2-----|
D|-4-------0--------0-------2-----|
A|-2-------2----------------0-----|
E|-2-------3----------------------|

(guitar 2)
(After the piano riff comes in, every second bar the second guitar will do this)
e|------------------------------|
B|------------------------------|
G|----xx-9-/-11-----------------|
D|----xx-x-/-x------------------|
A|----xx-7-/-9------------------|
E|------------------------------|

[Pre-Chorus]
(The pre-chorus is simply the chords Em and G.)
e|-0----------3------|
B|-0----------3------|
G|-0----------0------|
D|-2----------0------|
A|-2----------2------|
E|-0----------3------|

[Chorus]
(And I do want to show you I will)
(The chords for the chorus are D, A, Bm, G.
Listen to the song for strumming pattern.)
e|-2-2---0-0-0---2-2---3-3-3-------|
B|-3-3---2-2-2---3-3---3-3-3-------|
G|-2-2---2-2-2---4-4---0-0-0-------|
D|-0-0---2-2-2---4-4---0-0-0-------| (x3)
A|-------0-0-0---2-2---2-2-2-------|
E|---------------2-2---3-3-3-------|

Em, A
e|-0-------0------|
B|-0-------2------|
G|-0-------2------|
D|-2-------2------|
A|-2-------0------|
E|-0-------0------|
(Strum each chord four times, embelish if you want to.)

[Instrumental]
[Intro]
(guitar 1) (x2)
e|---2-----2-----2-|
B|-----3-----3-----|
G|-4-----4-----4---|
D|-----------------|
A|-----------------|
E|-----------------|

e|---2-----2-----2-|
B|-----3-----3-----|
G|-----------------|
D|-5-----5-----5---|
A|-----------------|
E|-----------------|

e|---0-----0-----0-|
B|-----3-----3-----|
G|-2-----2-----2---|
D|-----------------|
A|-----------------|
E|-----------------|

e|---0-----0-----0-|
B|-----3-----3-----|
G|-2-----2-----2---|
D|-----------------|
A|-----------------|
E|-----------------|

[Verse]
(The verse is simply the chords Bm, G, D, and A.
One strum for each bar.)

[Chorus]
(And I do want to show you I will)
(The chords for the chorus are D, A, Bm, G.
Listen to the song for strumming pattern.)
e|-2-2---0-0-0---2-2---3-3-3-------|
B|-3-3---2-2-2---3-3---3-3-3-------|
G|-2-2---2-2-2---4-4---0-0-0-------|
D|-0-0---2-2-2---4-4---0-0-0-------| (x3)
A|-------0-0-0---2-2---2-2-2-------|
E|---------------2-2---3-3-3-------|

Em, A
e|-0-------0------|
B|-0-------2------|
G|-0-------2------|
D|-2-------2------|
A|-2-------0------|
E|-0-------0------|
(Strum each chord four times, embelish if you want to.)

[Bridge]
(Take me with you, I start to miss you...)
e|-5---5---5---5----------|
B|------------------------|
G|---7---7---7---7--------|
D|------------------------|
A|------------------------|
E|------------------------|

**Repeat this for five times,

(Listen to the song for the strumming pattern to this part.
D, (x indicates strumming muted notes))
e|-2-2---xx--x--xx--x-2-2--xx--x--xx--x---|
B|-3-3---xx--x--xx--x-3-3--xx--x--xx--x---|
G|-2-2---xx--x--xx--x-2-2--xx--x--xx--x---|
D|-0-0---xx--x--xx--x-0-0--xx--x--xx--x---|
A|----------------------------------------|
E|----------------------------------------|

Bm, G, D, (A)
e|-2----3----2---(0)-|
B|-3----3----3---(2)-|
G|-4----0----2---(2)-|
D|-4----0----0---(2)-|
A|-2----2--------(0)-|
E|-2----3------------|

(Then he joins in with the piano)
Bm, G, D, A
e|-2----3----2---0-|
B|-3----3----3---2-|
G|-4----0----2---2-|
D|-4----0----0---2-|
A|-2----2--------0-|
E|-2----3----------|


************************************

| /    Slide up
| \    Slide down
| x    Dead note
| (n)  Ghost note

************************************
Suggest correction
comments
print report bad tab
9 comments total. Showing first comments.
0 reply
Drazorback123 180 Mar 21, 2009 06:48 AM

thanks for tabbing this song.

0 reply
HybridKaos 96 Mar 21, 2009 04:55 PM

hey nice tab, I think your intro is easier to play than mine, so no worries :)
haha, i read your comment about the Richmond, BC weather, PoCo's weather ain't so much better. :s

+1 reply
Annzmusic 10 Aug 13, 2009 09:06 AM

Hey, thanks for tabbing this song =)
I think it's 0 on the e string, not 2
And it'd be easier if you play 0 on the G string instead of 5 on D string..

e|---2-----2-----2-|
B|-----3-----3-----|
G|-4-----4-----4---|
D|-----------------|
A|-----------------|
E|-----------------|

e|---2-----2-----0-|

guest
You may want to rate the tab now too:
select rating
Wanna post a correction for this tab? Suggest correction